Three Plus - Honey Baby tab

This is my first tab but um yea dis is similar to the other but still gud



[--9--10--9--12-12-12-12--10--9--9h10--12-12---1212--9-------------------]
[--10----------------------------------------------------10--------------]
[--11--------------------------------------------------------9-----------]
[------------------------------------------------------------------------]
[------------------------------------------------------------------------]
[------------------------------------------------------------------------]

[------------------------------------------------------------------------]
[------10----10----10----------------9-9--10-------9-9--10---------------]
[--9h11--9h11--9h11--9h11--9---9h11-----------9h11-----------------------]
[------------------------------------------------------------------------]
[------------------------------------------------------------------------]
[------------------------------------------------------------------------]

[-7s9---12---9---7---7s9---9s10---9----5---------------------------------]
[------------------------------------------------------------------------]
[------------------------------------------------------------------------]
[------------------------------------------------------------------------]
[------------------------------------------------------------------------]
[------------------------------------------------------------------------]
Tap to rate this tab
 
# A B C D E F G H I J K L M N O P Q R S T U V W X Y Z