Song name
# A B C D E F G H I J K L M N O P Q R S T U V W X Y Z

Thrice - The Messenger tab

The Messenger
by THRICE
from THE ALCHEMY INDEX VOL I: FIRE
released by VAGRANT RECORDS
Tabbed by Daniel Miller
Arranged for 1 guitar

DROP A tuning (AADGBE)

INTRO/VERSE (repeat 4x's)
e-------------------------------------------------0-0-0-0-0-0-0-0-|
B-0-0-0-0-0-0-0-0-0-0-0-0-0-0-0-0-0-0-0-0-0-0-0-0-0-0-0-0-0-0-0-0-|
G-4-4-4-4-4-4-4-4-4-4-4-4-4-4-4-4-6-6-6-6-7-7-7-7-4-4-4-4-4-4-4-4-|
D-----------------------------------------------------------------|
A-----------------------------------------------------------------|
A-----------------------------------------------------------------|

"Mark me with fear and trembling..."


CHORUS (repeat 2x's)
e---------------------------------------------------------------------------------|
B---0-0-0-----0-----0---0-0-0-----0-----0-----------------------------------------|
G---4-4-4-----4-----4---3-3-3-----3-----3---0-0-0-----0-----0---0-0-0-----0-----0-|
D-------------------------------------------5-5-5-----5-----5---4-4-4-----4-----4-|
A-2-------2-2---2-2---2-------2-2---2-2---2-------2-2---2-2---2-------2-2---2-2---|
A-2-------2-2---2-2---2-------2-2---2-2---2-------2-2---2-2---2-------2-2---2-2---|
"Kiss the coals, breath in smoke...

CHORUS PT 2
e-------------------------------------------------------------------------------------|
B---0-0-0-----0-0-0-0---0-0-0-----0-0-0-0---0-0-0-----0-0-0-0-0-0-0-0-0-0-0-0-0-0-0-0-|
G---4-4-4-----4-4-4-4---6-6-6-----6-6-6-6---7-7-7-----7-7-7-7-4-4-4-4-4-4-3-3-3-3-3-3-|
D-------------------------------------------------------------------------------------|
A-2-------2-2---------4-------4-4---------5-------5-5---------------------------------|
A-2-------2-2---------4-------4-4---------5-------5-5---------------------------------|


VERSE (repeat 4x's)
e-------------------------------------------------0-0-0-0-0-0-0-0-|
B-0-0-0-0-0-0-0-0-0-0-0-0-0-0-0-0-0-0-0-0-0-0-0-0-0-0-0-0-0-0-0-0-|
G-4-4-4-4-4-4-4-4-4-4-4-4-4-4-4-4-6-6-6-6-7-7-7-7-4-4-4-4-4-4-4-4-|
D-----------------------------------------------------------------|
A-----------------------------------------------------------------|
A-----------------------------------------------------------------|
"Mark me with fire and send me..."

CHORUS (repeat 2x's)
e---------------------------------------------------------------------------------|
B---0-0-0-----0-----0---0-0-0-----0-----0-----------------------------------------|
G---4-4-4-----4-----4---3-3-3-----3-----3---0-0-0-----0-----0---0-0-0-----0-----0-|
D-------------------------------------------5-5-5-----5-----5---4-4-4-----4-----4-|
A-2-------2-2---2-2---2-------2-2---2-2---2-------2-2---2-2---2-------2-2---2-2---|
A-2-------2-2---2-2---2-------2-2---2-2---2-------2-2---2-2---2-------2-2---2-2---|
"Kiss the coals, breath in smoke...

CHORUS PT 2
e-------------------------------------------------------------------------------------|
B---0-0-0-----0-0-0-0---0-0-0-----0-0-0-0---0-0-0-----0-0-0-0-0-0-0-0-0-0-0-0-0-0-0-0-|
G---4-4-4-----4-4-4-4---6-6-6-----6-6-6-6---7-7-7-----7-7-7-7-4-4-4-4-4-4-3-3-3-3-3-3-|
D-------------------------------------------------------------------------------------|
A-2-------2-2---------4-------4-4---------5-------5-5---------------------------------|
A-2-------2-2---------4-------4-4---------5-------5-5---------------------------------|

BREAKDOWN
e------------------------------------------------------------------------------------------------|
B------------------------------------------------------------------------------------------------|
G-4-4----4----4-4----4----4-4----4----4-4----4----4-4----4----4-4----4----4-4----4----4-4----4---|
D-4-4----4----4-4----4----4-4----4----4-4----4----4-4----4----4-4----4----4-4----4----4-4----4---|
A-2-2--0-2p0--2-2--0-2p0--2-2--0-2p0--2-2--0-2p0--2-2--0-2p0--2-2--0-2p0--2-2--0-2p0--2-2--0-2p0-|
A-2-2--0-2p0--2-2--0-2p0--2-2--0-2p0--2-2--0-2p0--2-2--0-2p0--2-2--0-2p0--2-2--0-2p0--2-2--0-2p0-|

e------------------------------------------------|
B------------------------------------------------|
G-4-4----4----------------4-4----4----4-4----4---|
D-4-4----4----------------4-4----4----4-4----4---|
A-2-2--0-2p0--2-2--0-2p0--2-2--0-2p0--2-2--0-2p0-|
A-2-2--0-2p0--2-2--0-2p0--------------2-2--0-2p0-|

OUTRO
e-------------------------------------------------|
B-------------------------------------------------|
G-4-4----4-----4-4----4-----4-4----4-----4-4----4-|
D-4-4----4-----4-4----4-----4-4----4-----4-4----4-|
A-2-2--0-2-----2-2--0-2-----2-2--0-2-----2-2--0-2-|
A-2-2--0-2-----2-2--0-2-----2-2--0-2-----2-2--0-2-|
  HEAR I AM, SEND ME
Tap to rate this tab
# A B C D E F G H I J K L M N O P Q R S T U V W X Y Z