Guitaretab - guitar tabs
Song name
# A B C D E F G H I J K L M N O P Q R S T U V W X Y Z

Thrills - Santa Cruz tab

Highlighted       Show chord diagrams
Voila -

No Intro it just goes straight in:

Verse 1:
     C
Well tell me

Where it all went wrong
    Am
And tell me

Where you lost those damn songs
            C
I can't say I was surprised
          F                  G (cut off)
I heard a drink was involved

Pre-Chorus
       Dm
Oh you gotta be, oh you gotta be
      G
Still living by the sea
        Dm               D (I use a F# bass as well)
Oh you gotta be, oh you gotta be

Chorus:

F
  Cos santa cruz
                Dm                      G
You're not that far (No you're not that far)
   Dm        D
Oh santa cruz,
                    Dm   G
No, you're not that far
Dm Dm/C  Dm Dm/C Dm  Dm/C
San-ta   Cr-uz,  San-ta
Em  Em/D  Em Em/D   Em  Em/D
San-ta    cr-uz
   Dm        D
Oh santa cruz,
                    Dm   G (let ring)
No, you're not that far

Verse 2:
(Tout la reste sont le meme jusque  le interlude)*

But now and then here once in a while
Those August cowboys stole your style
Dont you know he feels blind
Well your train's just rolled in on time

Prechorus:
[ Tab from: http://www.guitaretab.com/t/thrills/159312.html ]
Oh you gotta be, oh you gotta be
Still living by the sea
Oh you gotta be, oh you gotta be

Chorus:

Cos santa cruz,
You're not that far
Oh santa cruz,
No, you're not that far

Interlude/Solo:

|C   |Am   |Dm  |C   Em  |F  C  C/B  C/A  C/B|  <--- the last bar is the little walk 
that happens, listen to the record and you'l get it.
|C     |Am    |

Prechorus:

Oh you gotta be, oh you gotta be
Still living by the sea
Oh you gotta be, oh you gotta be

Chorus:

Cos santa cruz,
You're not that far
Oh santa cruz,
No, you're not that far

Outro

|Dm   |Em   | repeated loads of times

Other Little Bits:

Fill that starts on the second C of the verse
  C
e|-3-3-3-3-3-3-1-1-1-1-0-0-0-0-1-1-1-1-1-1-1-0-0-0-0-0-----------------------|
B|----------------------------------------------------3-3-3-3-3-3------------|
G|---------------------------------------------------------------------------|

  F
e|-8-8-8-8-8-8-7-7-7-7-7-7-5-5-5-5-5-5-3------------------------------------|
B|--------------------------------------------------------------------------|
G|--------------------------------------------------------------------------|

Outro bit

e|-------------------------------------------|
B|-3-----3--1--3--1---5--------5--3--5--3----|
G|---2-------------------4-------------------| x2 "End IT!!!!"
D|-----0--------------------2----------------|
A|-------------------------------------------|
E|-------------------------------------------|
Related for Santa Cruz tab