Song name
# A B C D E F G H I J K L M N O P Q R S T U V W X Y Z

Through The Eyes Of The Dead - Bloodlust tab

THROUGH THE EYES OF THE DEAD – BLOODLUST
© April 2005
_____________________________________________________

    1. Two Inches From a Main Artery
    2. When Everything Becomes Nothing
    3. Bringing of Truth
    4. Beneath Dying Skies
    5. The Black Death And Its Aftermath
    6. Truest Shades of Crimson
    7. With Eyes Ever Turned Inward
    8. Force Fed Trauma
    9. The Decaying Process
___________________________________________________
Please Comment And Rate…


____________________________________________________
____________________________________________________
____________________________________________________
____________Two Inches From A Main Artery___________
____________________________________________________
____________________________________________________

Gtr I (B F# B E G# C#) - 'Guitar 1'
Gtr II (B F# B E G# C#) - 'Guitar 2'

    Q=178
   4/4
    Gtr I
||-----------|------------|-----------|------------|
||o----------|------------|-----------|------------|
||-----------|------------|-----------|------------|
||--0--------|-(0)--------|-/8--------|-/5----4----|
||o-0--------|-(0)--------|-----------|------------|
||--0--------|-(0)--------|-/8--------|-/5----4----|
|
|   Gtr II
||-----------|------------|-----------|------------|
||o----------|------------|-----------|------------|
||--2--------|-(2)--------|-/7--------|------------|
||--0--------|-(0)--------|-----------|-/8----7----|
||o-0--------|-(0)--------|-/5--------|------------|
||--0--------|-(0)--------|-----------|-/8----7----|


|----------|------------|-----------|-------------------||
|----------|------------|-----------|------------------o||
|----------|------------|-----------|--/8--5---7--(7)---||
|-0--------|-(0)--------|-/4--------|-------------------||
|-0--------|-(0)--------|-----------|--/6--3---5--(5)--o||
|-0--------|-(0)--------|-/4--------|--------------0----||
|
|----------|------------|-----------|-------------------||
|----------|------------|-----------|------------------o||
|-2--------|-(2)--------|-----------|-/12--8--11--------||
|-0--------|-(0)--------|-/8--------|-------------------||
|-0--------|-(0)--------|-----------|-/10--6---9-------o||
|-0--------|-(0)--------|-/8--------|-------------------||


|-----------------------|--------------------|
|-----------------------|--------------------|
|-----------------------|--------------------|
|-----------------------|--------------------|
|-0-0-0-0-0-0-0-0-0-0-0-|-0-0-0-0-0-0-0-0-0--|
|-0-0-0-0-0-0-0-0-0-0-0-|-0-0-0-0-0-0-0-0-0--|
|
|-----------------------|--------------------|
|-----------------------|--------------------|
|-----------------------|--------------------|
|-----------------------|--------------------|
|-0-0-0-0-0-0-0-0-0-0-0-|-0-0-0-0-0-0-0-0-0--|
|-0-0-0-0-0-0-0-0-0-0-0-|-0-0-0-0-0-0-0-0-0--|


       PM----------------------------------|
||-----------------------|-------------------------|
||o----------------------|-------------------------|
||-----------------------|-------------------------|
||--1--0-0-0-0-0-0-0-0-0-|-0-0-0-0-0-0-0-0-0-------|
||o-1--0-0-0-0-0-0-0-0-0-|-0-0-0-0-0-0-0-0-0-------|
||--1--0-0-0-0-0-0-0-0-0-|-0-0-0-0-0-0-0-0-0-5-/8--|
|
|      PM----------------------------------|
||-----------------------|-------------------------|
||o----------------------|-------------------------|
||-----------------------|-------------------------|
||--1--0-0-0-0-0-0-0-0-0-|-0-0-0-0-0-0-0-0-0-------|
||o-1--0-0-0-0-0-0-0-0-0-|-0-0-0-0-0-0-0-0-0-1-/5--|
||--1--0-0-0-0-0-0-0-0-0-|-0-0-0-0-0-0-0-0-0-------|


     PM--------------|
|----------------------|------------------|
|----------------------|------------------|
|----------------------|------------------|
|----0-0-0-0-0-0-0-0-0-|-0-0-0------------|
|----0-0-0-0-0-0-0-0-0-|-0-0-0------------|
|-7--0-0-0-0-0-0-0-0-0-|-0-0-0-7-5-5-4-4--|
|
|    PM--------------|
|----------------------|------------------|
|----------------------|------------------|
|----------------------|------------------|
|----0-0-0-0-0-0-0-0-0-|-0-0-0------------|
|-3--0-0-0-0-0-0-0-0-0-|-0-0-0-3-1-1-0-0--|
|----0-0-0-0-0-0-0-0-0-|-0-0-0------------|


     PM------------------------------------|   PM
|----------------------|--------------------------|
|----------------------|--------------------------|
|----------------------|--------------------------|
|-1--0-0-0-0-0-0-0-0-0-|-0-0-0-0-0-0-0-0-0--------|
|-1--0-0-0-0-0-0-0-0-0-|-0-0-0-0-0-0-0-0-0--------|
|-1--0-0-0-0-0-0-0-0-0-|-0-0-0-0-0-0-0-0-0-5---8--|
|
|    PM--------------------------------|   PM-|
|----------------------|--------------------------|
|----------------------|--------------------------|
|----------------------|--------------------------|
|-1--0-0-0-0-0-0-0-0-0-|-0-0-0-0-0-0-0-0-0--------|
|-1--0-0-0-0-0-0-0-0-0-|-0-0-0-0-0-0-0-0-0-1--/5--|
|-1--0-0-0-0-0-0-0-0-0-|-0-0-0-0-0-0-0-0-0--------|


|-------------------------------------------------|
|-------------------------------------------------|
|-------------------------------------------------|
|-------------------------------------------------|
|-------------------------------------------------|
|-0-0-0-0-0-0-8-8-8-8-8-8-5-5-5-5-5-5-0-0-0-0-0-0-|
|
|-------------------------------------------------|
|-------------------------------------------------|
|-------------------------------------------------|
|-------------------------------------------------|
|-------------5-5-5-5-5-5-1-1-1-1-1-1-------------|
|-0-0-0-0-0-0-------------------------0-0-0-0-0-0-|


|---------------------------------------------------||
|--------------------------------------------------o||
|---------------------------------------------------||
|---------------------------------------------------||
|--------------------------------------------------o||
|-7-7-7-7-7-7-4-4-4-4-4-4-5-5-5-5-5-5-7-7-7-7-7-7---||
|
|---------------------------------------------------||
|--------------------------------------------------o||
|---------------------------------------------------||
|---------------------------------------------------||
|-3-3-3-3-3-3-0-0-0-0-0-0-1-1-1-1-1-1-3-3-3-3-3-3--o||
|---------------------------------------------------||


  Q=212
  PM|     PM    PM        PM    PM      PM|     PM    PM      PM    PM
|-----------------|-------------------|-----------------|-----------------|
|-----------------|-------------------|-----------------|-----------------|
|-----------------|-------------------|-----------------|-----------------|
|-----------------|-------------------|-----------------|-----------------|
|-----4p1---5p4---|--7p=5---5p4---4p1-|-----4p1---5p4---|-7p5---5p4---1h4-|
|-0-0-----0-----0-|-------0-----0-----|-0-0-----0-----0-|-----0-----0-----|
|
|                                       PM|
|-----------------|-------------------|-----------------|-----------------|
|-----------------|-------------------|-----------------|-----------------|
|-----------------|-------------------|-----------------|-----------------|
|-0---------------|-(0)---------------|-----------------|-----------------|
|-0---------------|-(0)---------------|-0-0-------------|-----------------|
|-0---------------|-(0)---------------|-0-0-------------|-----------------|


    Gtrs I, II
||--------------------------|-------------------------|
||o-------------------------|-------------------------|
||--------------------------|-------------------------|
||--0-0-0-3-3-3-0-0-0-2-2-2-|-0-0-0-7-7-7-0-0-0-2-2-2-|
||o-------------------------|-------------------------|
||--------------------------|-------------------------|


|-------------------------|----------------------------|
|-------------------------|----------------------------|
|-------------------------|----------------------------|
|-0-0-0-7-7-7-0-0-0-5-5-5-|-0-0-0-3-3-3-0-0-0-2-2-2----|
|-------------------------|----------------------------|
|-------------------------|----------------------------|


  Gtr I
  PM|     PM    PM       PM    PM      PM|     PM    PM       PM    PM
                                                                           4x
|-----------------|------------------|-----------------|-------------------||
|-----------------|------------------|-----------------|------------------o||
|-----------------|------------------|-----------------|-------------------||
|-----------------|------------------|-----------------|-------------------||
|-----7p5---8p7---|-10p8---8p7---4h7-|-----7p5---8p7---|-10p8---8p7---4h7-o||
|-0-0-----0-----0-|------0-----0-----|-0-0-----0-----0-|------0-----0------||
|
| Gtr II
| PM|     PM    PM       PM    PM      PM|     PM    PM       PM    PM
|                                                                          4x
|-----------------|------------------|-----------------|-------------------||
|-----------------|------------------|-----------------|------------------o||
|-----------------|------------------|-----------------|-------------------||
|-----------------|------------------|-----------------|-------------------||
|-----4p1---5p4---|--7p5---5p4---1h4-|-----4p1---5p4---|--7p5---5p4---1h4-o||
|-0-0-----0-----0-|------0-----0-----|-0-0-----0-----0-|------0-----0------||


  Gtrs I, II
|-------------------------|-------------------------|
|-------------------------|-------------------------|
|-------------------------|-------------------------|
|-0-0-0-3-3-3-0-0-0-2-2-2-|-0-0-0-7-7-7-0-0-0-2-2-2-|
|-------------------------|-------------------------|
|-------------------------|-------------------------|


|-------------------------|----------------------------|
|-------------------------|----------------------------|
|-------------------------|----------------------------|
|-0-0-0-7-7-7-0-0-0-5-5-5-|-0-0-0-3-3-3-0-0-0-2-2-2----|
|-------------------------|----------------------------|
|-------------------------|----------------------------|


|-------------------------|-------------------------|
|-------------------------|-------------------------|
|-------------------------|-------------------------|
|-------------------------|-------------------------|
|-------5-5-5-7-7-7-------|-5-5-5-8-8-8-8-8-8-8-8-8-|
|-0-0-0-------------0-0-0-|-------------------------|


|-------------------------|----------------------------|
|-------------------------|----------------------------|
|-------------------------|----------------------------|
|-------------------------|----------------------------|
|-------5-5-5-7-7-7-------|-5-5-5-8-8-8-8-8-8-8-8-8----|
|-0-0-0-------------0-0-0-|----------------------------|


|-------------------------|-------------------------|
|-------------------------|-------------------------|
|-------------------------|-------------------------|
|-------------------------|-------------------------|
|-1-1-1-5-5-5-1-1-1-5-5-5-|-4-4-4-4-4-4-0-0-0-0-0-0-|
|-------------------------|-------------------------|


|-------------------------|----------------------------|
|-------------------------|----------------------------|
|-------------------------|----------------------------|
|-------------------------|-3-3-3-3-3-3-2-2-2-2-2-2----|
|-1-1-1-5-5-5-1-1-1-5-5-5-|----------------------------|
|-------------------------|----------------------------|


  Gtr I
|-------------------------------------------|-------------------------------|
|-------------------------------------------|-------------------------------|
|-------------------------------------------|-------------------------------|
|-0-0---0---0-0-0---0---0-------0-0---0---0-|-0-0---0---0-------------------|
|-0-0---0---0-0-0---0---0-------0-0---0---0-|-0-0---0---0-------------------|
|-0-0---0---0-0-0---0---0-------0-0---0---0-|-0-0---0---0-------------------|
|
| Gtr II
|-------------------------------------------|-------------------------------|
|-------------------------------------------|-------------------------------|
|-------------------------------------------|-------------------------------|
|-------------------------------------------|-------------------------------|
|-------------5---5---5---7-7-7-------------|-5---5---5---8-8-8-8-8-8-8-8-8-|
|-0---0---0---------------------0---0---0---|-------------------------------|


|-------------------------------------------|----------------------------------|
|-------------------------------------------|----------------------------------|
|-------------------------------------------|----------------------------------|
|-0-0---0---0-0-0---0---0-------0-0---0---0-|-0-0---0---0-------------0--------|
|-0-0---0---0-0-0---0---0-------0-0---0---0-|-0-0---0---0-------------0--------|
|-0-0---0---0-0-0---0---0-------0-0---0---0-|-0-0---0---0-------------0--------|
|
|-------------------------------------------|----------------------------------|
|-------------------------------------------|----------------------------------|
|-------------------------------------------|----------------------------------|
|-------------------------------------------|----------------------------------|
|-------------5---5---5---7-7-7-------------|-5---5---5---8-8-8-8-8-8-8-8-8----|
|-0---0---0---------------------0---0---0---|----------------------------------|


|------------------------------------------|-------------------------------|
|------------------------------------------|-------------------------------|
|------------------------------------------|-------------------------------|
|-0-0---0-0--0-0---0---0-------0-0---0---0-|-0-0---0---0-------------------|
|-0-0---0-0--0-0---0---0-------0-0---0---0-|-0-0---0---0-------------------|
|-0-0---0-0--0-0---0---0-------0-0---0---0-|-0-0---0---0-------------------|
|
|------------------------------------------|-------------------------------|
|------------------------------------------|-------------------------------|
|------------------------------------------|-------------------------------|
|------------------------------------------|-------------------------------|
|-1---1---1--5---5---5---1-1-1-5---5---5---|-4---4---4---4-4-4-0-0-0-0-0-0-|
|------------------------------------------|-------------------------------|


|-------------------------------------------|----------------------------------|
|-------------------------------------------|----------------------------------|
|-------------------------------------------|----------------------------------|
|-0-0---0---0-0-0---0---0-------0-0---0---0-|-0-0---0---0-------------0--------|
|-0-0---0---0-0-0---0---0-------0-0---0---0-|-0-0---0---0-------------0--------|
|-0-0---0---0-0-0---0---0-------0-0---0---0-|-0-0---0---0-------------0--------|
|
|-------------------------------------------|----------------------------------|
|-------------------------------------------|----------------------------------|
|-------------------------------------------|----------------------------------|
|-------------------------------------------|-3---3---3---3-3-3-2-2-2-2-2-2----|
|-1---1---1---5---5---5---1-1-1-5---5---5---|----------------------------------|
|-------------------------------------------|----------------------------------|


  PM      PM        PM      PM
|-----------------|-----------------|
|-----------------|-----------------|
|-----------------|-----------------|
|-0-------0-------|-0-------0-------|
|-0-------0-------|-0-------0-------|
|-0-------0-------|-0-------0-------|
|
| PM|     PM    PM      PM    PM
|-----------------|-----------------|
|-----------------|-----------------|
|-----------------|-----------------|
|-----------------|-----------------|
|-----4p1---5p4---|-7p5---5p4---1h4-|
|-0-0-----0-----0-|-----0-----0-----|


  PM--|     PM--|       PM--|     PM--|
|---------------------|---------------------|
|---------------------|---------------------|
|---------------------|---------------------|
|-0-0-0-----0-0-0-----|-0-0-0-----0-0-0-----|
|-0-0-0-----0-0-0-----|-0-0-0-----0-0-0-----|
|-0-0-0-----0-0-0-----|-0-0-0-----0-0-0-----|
|
| PM--|     PM      PM        PM      PM
|---------------------|---------------------|
|---------------------|---------------------|
|---------------------|---------------------|
|---------------------|---------------------|
|-------4p1-----5p4---|-7p==5---5p4-----1h4-|
|-0---0-----0-------0-|-------0-------0-----|


  Gtrs I, II
|-------------------------|-------------------------|
|-------------------------|-------------------------|
|-------------------------|-------------------------|
|-0-0-0-3-3-3-0-0-0-2-2-2-|-0-0-0-7-7-7-0-0-0-2-2-2-|
|-------------------------|-------------------------|
|-------------------------|-------------------------|


|-------------------------|----------------------------|
|-------------------------|----------------------------|
|-------------------------|----------------------------|
|-0-0-0-7-7-7-0-0-0-5-5-5-|-0-0-0-3-3-3-0-0-0-2-2-2----|
|-------------------------|----------------------------|
|-------------------------|----------------------------|


    Gtr I
    PM|     PM    PM       PM    PM      PM|     PM    PM       PM    PM
||------------------|------------------|-----------------|-------------------|
||o-----------------|------------------|-----------------|-------------------|
||------------------|------------------|-----------------|-------------------|
||------------------|------------------|-----------------|-------------------|
||o-----7p5---8p7---|-10p8---8p7---4h7-|-----7p5---8p7---|-10p8---8p7---4h7--|
||--0-0-----0-----0-|------0-----0-----|-0-0-----0-----0-|------0-----0------|
|
|   Gtr II
|   PM|     PM    PM       PM    PM      PM|     PM    PM       PM    PM
||------------------|------------------|-----------------|-------------------|
||o-----------------|------------------|-----------------|-------------------|
||------------------|------------------|-----------------|-------------------|
||------------------|------------------|-----------------|-------------------|
||o-----4p1---5p4---|--7p5---5p4---1h4-|-----4p1---5p4---|--7p5---5p4---1h4--|
||--0-0-----0-----0-|------0-----0-----|-0-0-----0-----0-|------0-----0------|


  Gtrs I, II
|-------------------------|-------------------------|
|-------------------------|-------------------------|
|-------------------------|-------------------------|
|-0-0-0-3-3-3-0-0-0-2-2-2-|-0-0-0-7-7-7-0-0-0-2-2-2-|
|-------------------------|-------------------------|
|-------------------------|-------------------------|


|-------------------------|-----------------------------||
|-------------------------|----------------------------o||
|-------------------------|-----------------------------||
|-0-0-0-7-7-7-0-0-0-5-5-5-|-0-0-0-3-3-3-0-0-0-2-2-2-----||
|-------------------------|----------------------------o||
|-------------------------|-----------------------------||


    Q=170
    PMPM-------|        PM---------------------------|
||----------------|--------------|---------------|-----------------|
||o---------------|--------------|---------------|-----------------|
||----------------|--------------|---------------|-----------------|
||--0-0--0-0-0-0--|--0--0-0-0-0--|-0-0--0-0-0-0--|-0-0-------------|
||o-0-0--0-0-0-0--|--0--0-0-0-0--|-0-0--0-0-0-0--|-0-0-1-0-/5-4----|
||--0-0--0-0-0-0--|--0--0-0-0-0--|-0-0--0-0-0-0--|-0-0-------------|
|
|   PM---------|        PM---------------------------|
||----------------|--------------|---------------|-----------------|
||o---------------|--------------|---------------|-----------------|
||----------------|--------------|---------------|-----------------|
||--0-0--0-0-0-0--|--0--0-0-0-0--|-0-0--0-0-0-0--|-0-0-------------|
||o-0-0--0-0-0-0--|--0--0-0-0-0--|-0-0--0-0-0-0--|-0-0-------------|
||--0-0--0-0-0-0--|--0--0-0-0-0--|-0-0--0-0-0-0--|-0-0-5-4-/8-7----|


  PM---------|        PM--------------------|
|---------------|--------------|---------------|--------------------||
|---------------|--------------|---------------|-------------------o||
|---------------|--------------|---------------|--------------------||
|-0-0--0-0-0-0--|--0--0-0-0-0--|-0-0--0-0-0-0--|--------------------||
|-0-0--0-0-0-0--|--0--0-0-0-0--|-0-0--0-0-0-0--|--5-/4--7-5-8-7----o||
|-0-0--0-0-0-0--|--0--0-0-0-0--|-0-0--0-0-0-0--|--------------------||
|
| PM---------|        PM--------------------|
|---------------|--------------|---------------|--------------------||
|---------------|--------------|---------------|-------------------o||
|---------------|--------------|---------------|--------------------||
|-0-0--0-0-0-0--|--0--0-0-0-0--|-0-0--0-0-0-0--|--------------------||
|-0-0--0-0-0-0--|--0--0-0-0-0--|-0-0--0-0-0-0--|--1--0-/4-1-5-4----o||
|-0-0--0-0-0-0--|--0--0-0-0-0--|-0-0--0-0-0-0--|--------------------||


  Q=130
  Gtrs I, II
|-------------------------------------------------|
|-------------------------------------------------|
|-------------------------------------------------|
|-------------------------------------------------|
|-------8-8-8-5-5-5-8-8-8-------8-8-8-5-5-5-8-8-8-|
|-0-0-0-------------------0-0-0-------------------|


|--------------------------------------------------|
|--------------------------------------------------|
|--------------------------------------------------|
|--------------------------------------------------|
|-------7-7-7-4-4-4-7-7-7-------5-5-5-1-1-1-4-4-4--|
|-2-2-2-------------------2-2-2--------------------|


|-------------------------------------------------|
|-------------------------------------------------|
|-------------------------------------------------|
|-------------------------------------------------|
|-------8-8-8-5-5-5-8-8-8-------8-8-8-5-5-5-8-8-8-|
|-0-0-0-------------------0-0-0-------------------|


|-----------------------------------------------------|
|-----------------------------------------------------|
|-----------------------------------------------------|
|-----------------------------------------------------|
|-------10-10-10-7-7-7-8-8-8-------7-7-7-8-8-8-7-7-7--|
|-7-7-7----------------------7-7-7--------------------|


  Gtr I
|-------------------------------------------------|
|-------------------------------------------------|
|-------------------------------------------------|
|-------------------------------------------------|
|-------8-8-8-5-5-5-8-8-8-------8-8-8-5-5-5-8-8-8-|
|-0-0-0-------------------0-0-0-------------------|
|
| Gtr II
|-------------------------------------------------|
|-------------------------------------------------|
|-------------------------------------------------|
|-0-----------------------------------------------|
|-0-----------------------------------------------|
|-0-----------------------------------------------|


|--------------------------------------------------|
|--------------------------------------------------|
|--------------------------------------------------|
|--------------------------------------------------|
|-------7-7-7-4-4-4-7-7-7-------5-5-5-1-1-1-4-4-4--|
|-2-2-2-------------------2-2-2--------------------|
|
|--------------------------------------------------|
|--------------------------------------------------|
|--------------------------------------------------|
|-2------------------------------------------------|
|-2------------------------------------------------|
|-2------------------------------------------------|


|-------------------------------------------------|
|-------------------------------------------------|
|-------------------------------------------------|
|-------------------------------------------------|
|-------8-8-8-5-5-5-8-8-8-------8-8-8-5-5-5-8-8-8-|
|-0-0-0-------------------0-0-0-------------------|
|
|-------------------------------------------------|
|-------------------------------------------------|
|-------------------------------------------------|
|-3-----------------------------------------------|
|-3-----------------------------------------------|
|-3-----------------------------------------------|


                             PM----------|
|---------------------------------------------|
|---------------------------------------------|
|---------------------------------------------|
|---------------------------------------------|
|-------10-10-10-7-7-7-8-8-8-0---0---0---0----|
|-7-7-7----------------------0---0---0---0----|
|
|                            PM----------|
|---------------------------------------------|
|---------------------------------------------|
|---------------------------------------------|
|-7-------------------------------------------|
|-7--------------------------0---0---0---0----|
|-7--------------------------0---0---0---0----|


    Q=136
    PM---------------------------------------------------
                                                       3x
||--------------------------|--------------------------||
||o-------------------------|-------------------------o||
||--------------------------|--------------------------||
||--------------------------|--------------------------||
||o-0-0-0-0-0-0-0-0-0-0-0-0-|-0-0-0-0-0-0-0-0-0-0-0-0-o||
||--0-0-0-0-0-0-0-0-0-0-0-0-|-0-0-0-0-0-0-0-0-0-0-0-0--||
|
|   PM----------------------------|
|                                                      3x
||--------------------------|--------------------------||
||o-------------------------|-------------------------o||
||--------------------------|--------------------------||
||--------------------------|--------------------------||
||o-0-0-0-------------0-0-0-|-0-0-0-------------------o||
||--0-0-0-------------0-0-0-|-0-0-0--------------------||


 ---------------------------------------------|
|-------------------------|----------------------|
|-------------------------|----------------------|
|-------------------------|----------------------|
|-------------------------|----------------------|
|-0-0-0-0-0-0-0-0-0-0-0-0-|-0-0-0-0-0-0-0-0-0-0--|
|-0-0-0-0-0-0-0-0-0-0-0-0-|-0-0-0-0-0-0-0-0-0-0--|
|
| PM------------------------------------------|
|-------------------------|----------------------|
|-------------------------|----------------------|
|-------------------------|----------------------|
|-------------------------|----------------------|
|-0-0-0-------------0-0-0-|-0-0-0-------------0--|
|-0-0-0-------------0-0-0-|-0-0-0-------------0--|


    PM--|               PM-----
||----------------------------|
||o---------------------------|
||----------------------------|
||--0-0-0---------------0-0-0-|
||o-0-0-0-10-9-6-10-9-6-0-0-0-|
||--0-0-0---------------0-0-0-|
|
|   PM--|               PM-----
||----------------------------|
||o---------------------------|
||----------------------------|
||--0-0-0--5-7-8--5-7-8-0-0-0-|
||o-0-0-0---------------0-0-0-|
||--0-0-0---------------0-0-0-|


 -----|                     PM--|               PM--|
|-------------------------|----------------------------|
|-------------------------|----------------------------|
|-------------------------|----------------------------|
|-0-0-0--5-7-8-10--8-7----|-0-0-0---------------0-0-0--|
|-0-0-0----------------9--|-0-0-0-10-9-6-10-9-6-0-0-0--|
|-0-0-0-------------------|-0-0-0---------------0-0-0--|
|
|-----|                     PM--|               PM--|
|-------------------------|----------------------------|
|-------------------------|----------------------------|
|-------------------------|----------------------------|
|-0-0-0-------------------|-0-0-0--5-7-8--5-7-8-0-0-0--|
|-0-0-0-10-9-6-12-10-9-5--|-0-0-0---------------0-0-0--|
|-0-0-0-------------------|-0-0-0---------------0-0-0--|


                               Q=159
                              12/8
  PM--|                        PM----|
                         4x
|------------------------||-*|----------------------------|
|-----------------------o||-*|----------------------------|
|------------------------||-*|----------------------------|
|-0-0-0--5-7-5-5-4-------||-*|-0-0-0-0--------------------|
|-0-0-0------------7-4--o||-*|-0-0-0-0--------------------|
|-0-0-0------------------||-*|-0-0-0-0--------------------|
|
| PM--|                        PM----|
|                        4x
|------------------------||-*|----------------------------|
|-----------------------o||-*|----------------------------|
|------------------------||-*|---------9-\7-7-7-6-6-6-3-3-|
|-0-0-0--------8-7-5-7---||-*|-0-0-0-0--------------------|
|-0-0-0-10-9-6----------o||-*|-0-0-0-0-7-\5-5-5-4-4-4-1-1-|
|-0-0-0------------------||-*|-0-0-0-0--------------------|


|---------------------------------------|
|---------------------------------------|
|---------9-/10-10-10-12-12-12-14-14----|
|-0-0-0-0-------------------------------|
|-0-0-0-0-7--/8--8--8-10-10-10-12-12----|
|-0-0-0-0-------------------------------|
|
|---------------------------------------|
|---------------------------------------|
|---------------------------------------|
|-0-0-0-0-------------------------------|
|-0-0-0-0-------------------------------|
|-0-0-0-0-------------------------------|


  PM----|
|----------------------------|
|----------------------------|
|----------------------------|
|-0-0-0-0--------------------|
|-0-0-0-0--------------------|
|-0-0-0-0--------------------|
|
| PM----|
|----------------------------|
|----------------------------|
|---------9-\7-7-7-6-6-6-3-3-|
|-0-0-0-0--------------------|
|-0-0-0-0-7-\5-5-5-4-4-4-1-1-|
|-0-0-0-0--------------------|


|----------------------------------------------------|
|----------------------------------------------------|
|----------------------------------------------------|
|----------------------------------------------------|
|-7-7-7-7-7-7-4-4-4-4-4-4-5-5-5-5-5-5-7-7-7-7-7-7----|
|----------------------------------------------------|
|
|----------------------------------------------------|
|----------------------------------------------------|
|----------------------------------------------------|
|-5-5-5-5-5-5-2-2-2-2-2-2-3-3-3-3-3-3-5-5-5-5-5-5----|
|----------------------------------------------------|
|----------------------------------------------------|


    PM----|                       PM----|
||------------------------------|---------------------------------------|
||o-----------------------------|---------------------------------------|
||----------6-7-7-7-9-9-9-10-10-|----------9-10-10-10-12-12-12-14-14----|
||--0-0-0-0---------------------|-0-0-0-0-------------------------------|
||o-0-0-0-0-4-5-5-5-7-7-7--8--8-|-0-0-0-0--7--8--8--8-10-10-10-12-12----|
||--0-0-0-0---------------------|-0-0-0-0-------------------------------|
|
|   PM----|                       PM----|
||------------------------------|---------------------------------------|
||o-----------------------------|---------------------------------------|
||----------6-7-7-7-6-6-6--3--3-|---------12-10-10-10--9--9--9--7--7----|
||--0-0-0-0---------------------|-0-0-0-0-------------------------------|
||o-0-0-0-0-4-5-5-5-4-4-4--1--1-|-0-0-0-0-10--8--8--8--7--7--7--5--5----|
||--0-0-0-0---------------------|-0-0-0-0-------------------------------|


  PM----|
|------------------------------|
|------------------------------|
|---------6--7-7-7-9-9-9-10-10-|
|-0-0-0-0----------------------|
|-0-0-0-0-4--5-5-5-7-7-7--8--8-|
|-0-0-0-0----------------------|
|
| PM----|
|------------------------------|
|------------------------------|
|---------9-\7-7-7-6-6-6--3--3-|
|-0-0-0-0----------------------|
|-0-0-0-0-7-\5-5-5-4-4-4--1--1-|
|-0-0-0-0----------------------|


|---------------------------------------------------||
|--------------------------------------------------o||
|---------------------------------------------------||
|---------------------------------------------------||
|-7-7-7-7-7-7-4-4-4-4-4-4-5-5-5-5-5-5-7-7-7-7-7-7--o||
|---------------------------------------------------||
|
|---------------------------------------------------||
|--------------------------------------------------o||
|---------------------------------------------------||
|-5-5-5-5-5-5-2-2-2-2-2-2-3-3-3-3-3-3-5-5-5-5-5-5---||
|--------------------------------------------------o||
|---------------------------------------------------||


    Q=130
    Gtrs I, II
||--------------------------|
||o-------------------------|
||--------------------------|
||--------------------------|
||o-8-8-8-------7-7-7-------|
||--------0-0-0-------0-0-0-|


|-----------------------------|-------------------------|
|-----------------------------|-------------------------|
|-----------------------------|-------------------------|
|-----------------------------|-------------------------|
|-10-10-10-------8-8-8-7-8-10-|-8-8-8-------7-7-7-------|
|----------8-8-8--------------|-------0-0-0-------0-0-0-|


  Gtr I
|--------------------------||-||------------------------------|
|-------------------------o||-||o-----------------------------|
|--------------------------||-||------------------------------|
|--------------------------||-||------------------------------|
|-1-0-1-4-4-4-1-4-5-4-1-1-o||-||o---------5-----4-------------|
|--------------------------||-||--0-0-0-0---0-0---0-0-0-0-0-0-|
|
| Gtr II
|--------------------------||-||------------------------------|
|-------------------------o||-||o-----------------------------|
|--------------------------||-||------------------------------|
|--------------------------||-||------------------------------|
|-1-0-1-4-4-4-1-4-5-4-1-1-o||-||o---------8-----7-------------|
|--------------------------||-||--0-0-0-0---0-0---0-0-0-0-0-0-|


|------------------------------------------------|
|------------------------------------------------|
|------------------------------------------------|
|------------------------------------------------|
|-10-----------8-----------8-8-8-8-8-8--5-7-8----|
|------0---0-------0---0-------------------------|
|
|------------------------------------------------|
|------------------------------------------------|
|------------------------------------------------|
|------------------------------------------------|
|--7-------5-------5-5-5-5-5-5-1-4-5-------------|
|----0---0---0---0-------------------------------|


|-----------------------------|----------------------------------------||
|-----------------------------|---------------------------------------o||
|-----------------------------|----------------------------------------||
|-----------------------------|----------------------------------------||
|---------5-----4-------------|-8-8-8-8-8-8-5-7-8-7-7-7-7-7-7-4-5-7---o||
|-0-0-0-0---0-0---0-0-0-0-0-0-|----------------------------------------||
|
|-----------------------------|----------------------------------------||
|-----------------------------|---------------------------------------o||
|-----------------------------|----------------------------------------||
|-----------------------------|----------------------------------------||
|---------8-----7-------------|-5-5-5-5-5-5-1-4-5-4-4-4-4-4-4-0-1-4---o||
|-0-0-0-0---0-0---0-0-0-0-0-0-|----------------------------------------||


||--------------------------|-----------------------------|
||o-------------------------|-----------------------------|
||--------------------------|-----------------------------|
||--------------------------|-----------------------------|
||o-8-8-8-------7-7-7-------|-10-10-10-------8-8-8-7-8-10-|
||--------0-0-0-------0-0-0-|----------8-8-8--------------|


|-------------------------|-----------------------------||
|-------------------------|----------------------------o||
|-------------------------|-----------------------------||
|-------------------------|-----------------------------||
|-8-8-8-------7-7-7-------|-1-0-1-4-4-4-1-4-5-4-1-1----o||
|-------0-0-0-------0-0-0-|-----------------------------||


    Q=178
||------------------------|--------------------|
||o-----------------------|--------------------|
||------------------------|--------------------|
||------------------------|--------------------|
||o-0-0-0-0-0-0-0-0-0-0-0-|-0-0-0-0-0-0-0-0-0--|
||--0-0-0-0-0-0-0-0-0-0-0-|-0-0-0-0-0-0-0-0-0--|


                                               4x
|-----------------------|----------------------||
|-----------------------|---------------------o||
|-----------------------|----------------------||
|-----------------------|----------------------||
|-0-0-0-0-0-0-0-0-0-0-0-|-0-0-0-0-0-0-0-0-0---o||
|-0-0-0-0-0-0-0-0-0-0-0-|-0-0-0-0-0-0-0-0-0----||


|-----------------------|--------------------|----|
|-----------------------|--------------------|----|
|-----------------------|--------------------|----|
|-----------------------|--------------------|----|
|-0-0-0-0-0-0-0-0-0-0-0-|-0-0-0-0-0-0-0-0-0--|----|
|-0-0-0-0-0-0-0-0-0-0-0-|-0-0-0-0-0-0-0-0-0--|----|



____________________________________________________
____________________________________________________
____________________________________________________
__________When Everything Becomes Nothing___________
____________________________________________________
____________________________________________________


Gtr I (B F# B E G# E) - 'Left Channel'
Gtr II (B F# B E G# E) - 'Right Channel'
Gtr III (B F# B E G# E) - 'Clean'
Gtr IV (B F# B E G# E) - 'Solo Rhythm'
Gtr V (B F# B E G# E) - 'Solo Lead'

 Intro
  Q=240
  D5                                   D5
 4/4
  Gtr I
  PM----|           PM----|            PM----|           PM----|
|-----------------|------------------|-----------------|-----------------|
|-----------------|------------------|-----------------|-----------------|
|-----------------|------------------|-----------------|-----------------|
|-----------------|------------------|-----------------|-----------------|
|-0-0-0-0---------|-0-0-0-0----------|-0-0-0-0---------|-0-0-0-0---------|
|-0-0-0-0---------|-0-0-0-0----------|-0-0-0-0---------|-0-0-0-0---------|
|
| Gtr II
| PM----|           PM----|            PM----|           PM----|
|-----------------|------------------|-----------------|-----------------|
|-----------------|------------------|-----------------|-----------------|
|-----------------|------------------|-----------------|-----------------|
|----------5-8-7--|----------7-10-8--|----------5-8-7--|------------5-4--|
|-0-0-0-0---------|-0-0-0-0----------|-0-0-0-0---------|-0-0-0-0--6------|
|-0-0-0-0---------|-0-0-0-0----------|-0-0-0-0---------|-0-0-0-0---------|


  D5
  PM----|           PM----|
|-----------------|------------------|
|-----------------|------------------|
|-----------------|------------------|
|-----------------|------------------|
|-0-0-0-0---------|-0-0-0-0----------|
|-0-0-0-0---------|-0-0-0-0----------|
|
| PM----|           PM----|
|-----------------|------------------|
|-----------------|------------------|
|-----------------|------------------|
|----------5-8-7--|----------7-10-8--|
|-0-0-0-0---------|-0-0-0-0----------|
|-0-0-0-0---------|-0-0-0-0----------|


  N.C.
|-------------------------|-----------------------|
|-------------------------|-----------------------|
|-------------------------|-----------------------|
|-12-10--8----10--8-------|--8--------------------|
|----------12-------12-10-|----12-10-9----9-10-9--|
|-------------------------|------------12---------|
|
|-------------------------|-----------------------|
|-------------------------|-----------------------|
|-10--8--------8----------|-----------------------|
|-------12-10----12-10--8-|-12-10--8-7----7--8-7--|
|-------------------------|------------10---------|
|-------------------------|-----------------------|


  D5                                   D5
  PM----|           PM----|            PM----|           PM----|
|-----------------|------------------|-----------------|-------------------|
|-----------------|------------------|-----------------|-------------------|
|-----------------|------------------|-----------------|-------------------|
|----------5-8-7--|----------7-10-8--|----------5-8-7--|------------5-4----|
|-0-0-0-0---------|-0-0-0-0----------|-0-0-0-0---------|-0-0-0-0--6--------|
|-0-0-0-0---------|-0-0-0-0----------|-0-0-0-0---------|-0-0-0-0-----------|
|
| PM----|           PM----|            PM----|           PM----|
|-----------------|------------------|-----------------|-------------------|
|-----------------|------------------|-----------------|-------------------|
|-----------------|------------------|-----------------|-------------------|
|------------5-4--|----------4--7-5--|------------5-4--|-------------------|
|-0-0-0-0--6------|-0-0-0-0----------|-0-0-0-0--6------|-0-0-0-0--3-6-5----|
|-0-0-0-0---------|-0-0-0-0----------|-0-0-0-0---------|-0-0-0-0-----------|


  D5                                 N.C.
  PM----|           PM----|
|-----------------|------------------|
|-----------------|------------------|
|-----------------|------------------|
|----------5-8-7--|----------7-10-8--|
|-0-0-0-0---------|-0-0-0-0----------|
|-0-0-0-0---------|-0-0-0-0----------|
|
| PM----|           PM----|
|-----------------|------------------|
|-----------------|------------------|
|-----------------|------------------|
|------------5-4--|----------4--7-5--|
|-0-0-0-0--6------|-0-0-0-0----------|
|-0-0-0-0---------|-0-0-0-0----------|


|-------------------------|-----------------------|
|-------------------------|-----------------------|
|-------------------------|-----------------------|
|-12-10--8----10--8-------|--8--------------------|
|----------12-------12-10-|----12-10-9----9-10-9--|
|-------------------------|------------12---------|
|
|-------------------------|-----------------------|
|-------------------------|-----------------------|
|-10--8--------8----------|-----------------------|
|-------12-10----12-10--8-|-12-10--8-7----7--8-7--|
|-------------------------|------------10---------|
|-------------------------|-----------------------|


  Q=254
  D5                                   D5
  PM----|           PM----|            PM----|           PM----|
|-----------------|------------------|-----------------|-------------------|
|-----------------|------------------|-----------------|-------------------|
|-----------------|------------------|-----------------|-------------------|
|----------5-8-7--|----------7-10-8--|----------5-8-7--|------------5-4----|
|-0-0-0-0---------|-0-0-0-0----------|-0-0-0-0---------|-0-0-0-0--6--------|
|-0-0-0-0---------|-0-0-0-0----------|-0-0-0-0---------|-0-0-0-0-----------|
|
| PM----|           PM----|            PM----|           PM----|
|-----------------|------------------|-----------------|-------------------|
|-----------------|------------------|-----------------|-------------------|
|-----------------|------------------|-----------------|-------------------|
|------------5-4--|----------4--7-5--|------------5-4--|-------------------|
|-0-0-0-0--6------|-0-0-0-0----------|-0-0-0-0--6------|-0-0-0-0--3-6-5----|
|-0-0-0-0---------|-0-0-0-0----------|-0-0-0-0---------|-0-0-0-0-----------|


  D5                                 N.C.
  PM----|           PM----|
|-----------------|------------------|
|-----------------|------------------|
|-----------------|------------------|
|----------5-8-7--|----------7-10-8--|
|-0-0-0-0---------|-0-0-0-0----------|
|-0-0-0-0---------|-0-0-0-0----------|
|
| PM----|           PM----|
|-----------------|------------------|
|-----------------|------------------|
|-----------------|------------------|
|------------5-4--|----------4--7-5--|
|-0-0-0-0--6------|-0-0-0-0----------|
|-0-0-0-0---------|-0-0-0-0----------|


|-------------------------|-----------------------|
|-------------------------|-----------------------|
|-------------------------|-----------------------|
|-12-10--8----10--8-------|--8--------------------|
|----------12-------12-10-|----12-10-9----9-10-9--|
|-------------------------|------------12---------|
|
|-------------------------|-----------------------|
|-------------------------|-----------------------|
|-10--8--------8----------|-----------------------|
|-------12-10----12-10--8-|-12-10--8-7----7--8-7--|
|-------------------------|------------10---------|
|-------------------------|-----------------------|


    D5                            D5
    PM-------------------------------------------------|
||---------------|--------------|--------------|--------------|
||o--------------|--------------|--------------|--------------|
||---------------|--------------|--------------|--------------|
||---------------|--------------|--------------|--------------|
||o-0--0---------|-0--0---------|-0--0---------|-0--0---------|
||--0--0---------|-0--0---------|-0--0---------|-0--0---------|
|
|   PM-|           PM-|           PM-|           PM-|
||---------------|--------------|--------------|--------------|
||o--------------|--------------|--------------|--------------|
||---------------|--------------|--------------|--------------|
||----------5-4--|-------4-7-5--|---------5-4--|--------------|
||o-0--0--6------|-0--0---------|-0--0--6------|-0--0--3-6-5--|
||--0--0---------|-0--0---------|-0--0---------|-0--0---------|


  D5                            D5
  PM--------------------------------------------------------|
|--------------|--------------|---------------|-----------------||
|--------------|--------------|---------------|----------------o||
|--------------|--------------|---------------|-----------------||
|--------------|--------------|---------------|-----------------||
|-0--0---------|-0--0---------|-0--0--0-0-0-0-|-0--0--0-0-0-0--o||
|-0--0---------|-0--0---------|-0--0--0-0-0-0-|-0--0--0-0-0-0---||
|
| PM-|           PM-|           PM--------------------------|
|--------------|--------------|---------------|-----------------||
|--------------|--------------|---------------|----------------o||
|--------------|--------------|---------------|-----------------||
|---------5-4--|-------4-7-5--|---------------|-----------------||
|-0--0--6------|-0--0---------|-0--0--0-0-0-0-|-0--0--0-0-0-0--o||
|-0--0---------|-0--0---------|-0--0--0-0-0-0-|-0--0--0-0-0-0---||


 Verse
  $
  D5N.C.
|-----------------|-----------------|
|-----------------|-----------------|
|-----------------|-----------------|
|-----------------|-----------------|
|-0---------------|-----------------|
|-0---------------|-----------------|
|
| PM|   PM  PM  PM      PM    PM
|-----------------|-----------------|
|-----------------|-----------------|
|-----------------|-----------------|
|-----------------|-----------------|
|-----4---5---0---|-4s5---5s7---7s8-|
|-0-0---0---0---0-|-----0-----0-----|


    N.C.
    PM|   PM  PM  PM      PM    PM       PM|   PM  PM  PM      PM    PM
||------------------|------------------|-----------------|-----------------|
||o-----------------|------------------|-----------------|-----------------|
||------------------|------------------|-----------------|-----------------|
||------------------|------------------|-----------------|-----------------|
||o-----4---5---4---|-5s7---7s8---8s10-|-----4---5---0---|-4s5---5s7---7s8-|
||--0-0---0---0---0-|-----0-----0------|-0-0---0---0---0-|-----0-----0-----|
|
|   PM|   PM  PM  PM      PM    PM       PM|   PM  PM  PM      PM    PM
||------------------|------------------|-----------------|-----------------|
||o-----------------|------------------|-----------------|-----------------|
||------------------|------------------|-----------------|-----------------|
||------------------|------------------|-----------------|-----------------|
||o-----4---5---4---|-5s7---7s8---8s10-|-----4---5---0---|-4s5---5s7---7s8-|
||--0-0---0---0---0-|-----0-----0------|-0-0---0---0---0-|-----0-----0-----|


                                       1.
  N.C.
  PM|   PM  PM  PM      PM    PM       PM|   PM  PM  PM      PM    PM
|-----------------|------------------|-----------------|-------------------||
|-----------------|------------------|-----------------|------------------o||
|-----------------|------------------|-----------------|-------------------||
|-----------------|------------------|-----------------|-------------------||
|-----4---5---4---|-5s7---7s8---10p7-|-----4---5---0---|-4s5---5s7---7s8--o||
|-0-0---0---0---0-|-----0-----0------|-0-0---0---0---0-|-----0-----0-------||
|
| PM|   PM  PM  PM      PM    PM       PM|   PM  PM  PM      PM    PM
|-----------------|------------------|-----------------|-------------------||
|-----------------|------------------|-----------------|------------------o||
|-----------------|------------------|-----------------|-------------------||
|-----------------|------------------|-----------------|-------------------||
|-----4---5---4---|-5s7---7s8---10p7-|-----4---5---0---|-4s5---5s7---7s8--o||
|-0-0---0---0---0-|-----0-----0------|-0-0---0---0---0-|-----0-----0-------||


   Chorus
    2.
    N.C.
    TP TP TP TP   TP TP TP TP   TP TP TP TP   TP TP TP TP
||--------------|-------------|-------------|-------------|
||o-------------|-------------|-------------|-------------|
||--------------|-------------|-------------|-------------|
||-----------7--|-5-----------|-------------|-------7-----|
||o----4--5-----|----8--7--8--|----8--7--8--|----8-----8--|
||--0-----------|-------------|-8-----------|-8-----------|
|
|   TP TP TP TP   TP TP TP TP   TP TP TP TP   TP TP TP TP
||--------------|-------------|-------------|-------------|
||o-------------|-------------|-------------|-------------|
||--------------|-------------|-------------|-------------|
||--------------|-------------|-------------|-------------|
||o----4--5--8--|-7--5--4--5--|----5--4--5--|----5--8--5--|
||--0-----------|-------------|-8-----------|-8-----------|


                                                 D.S.
  N.C.                                            F5 E5
  TP TP TP TP   TP TP TP TP   TP TP TP TP   TP TP PM-|
|-------------|-------------|-------------|---------------||
|-------------|-------------|-------------|--------------o||
|-------------|-------------|-------------|---------------||
|----------7--|-5-----------|-------------|---------------||
|----4--5-----|----8--7--8--|----8--7--8--|----8--3--2---o||
|-0-----------|-------------|-8-----------|-8-----3--2----||
|
| TP TP TP TP   TP TP TP TP   TP TP TP TP   TP TP PM-|
|-------------|-------------|-------------|---------------||
|-------------|-------------|-------------|--------------o||
|-------------|-------------|-------------|---------------||
|-------------|-------------|-------------|---------------||
|----4--5--8--|-7--5--4--5--|----5--4--5--|----5--3--2---o||
|-0-----------|-------------|-8-----------|-8-----3--2----||


 Bridge
  Q=240
  F5 E5      F5   E5                  F5 E5      F5   E5N.C.
  PM-|       PM---|                   PM-|       PM---|
|---------------|-------------------|---------------|--------------|
|---------------|-------------------|---------------|--------------|
|---------------|-------------------|---------------|--------------|
|---------------|-------------------|---------------|--------------|
|-3--2-------3--|-2-----------------|-3--2-------3--|-2------------|
|-3--2-------3--|-2-----------------|-3--2-------3--|-2---7--6--3--|
|
| PM----------------------------------------------------|
|---------------|-------------------|---------------|--------------|
|---------------|-------------------|---------------|--------------|
|---------------|-------------------|---------------|--------------|
|---------------|-------------------|---------------|--------------|
|-3--2-2-2-2-3--|-2-2-2-2-2-2-2-2-2-|-3--2-2-2-2-3--|-2-2-3--2--6--|
|-3--2-2-2-2-3--|-2-2-2-2-2-2-2-2-2-|-3--2-2-2-2-3--|-2-2----------|


    F5E5        F5E5                    F5E5        F5E5      N.C.
        PM----|       PM------------|       PM----|       PM|
                                                                        4x
||------------------|-----------------|-----------------|---------------||
||o-----------------|-----------------|-----------------|--------------o||
||------------------|-----------------|-----------------|---------------||
||------------------|-----------------|-----------------|---------------||
||o-3p2-2-2-2-2-3p2-|-2-2-2-2-2-2-2-2-|-3p2-2-2-2-2-3p2-|-2-2----------o||
||--3p2-2-2-2-2-3p2-|-2-2-2-2-2-2-2-2-|-3p2-2-2-2-2-3p2-|-2-2-7--6--3---||
|
|       PM----|       PM------------|       PM----|       PM|
|                                                                       4x
||------------------|-----------------|-----------------|---------------||
||o-----------------|-----------------|-----------------|--------------o||
||------------------|-----------------|-----------------|---------------||
||------------------|-----------------|-----------------|---------------||
||o-3p2-2-2-2-2-3p2-|-2-2-2-2-2-2-2-2-|-3p2-2-2-2-2-3p2-|-2-2-3--2--6--o||
||--3p2-2-2-2-2-3p2-|-2-2-2-2-2-2-2-2-|-3p2-2-2-2-2-3p2-|-2-2-----------||


 Verse
  D5
  PM-----------------------------------------
|---------------------|---------------------|
|---------------------|---------------------|
|---------------------|---------------------|
|---------------------|---------------------|
|-0-0---0---------0-0-|-0-0---0---------0-0-|
|-0-0---0---------0-0-|-0-0---0---------0-0-|
|
| PM--|     PM  PM----------|     PM  PM-----
|---------------------|---------------------|
|---------------------|---------------------|
|---------------------|---------------------|
|-------------4-------|-------------5-------|
|---------5-----------|---------6-----------|
|-0---0-----0---0-0-0-|-0---0-----0---0-0-0-|


  D5                    N.C.
 ---------|                PM|   PM|
|---------------------|------------------|
|---------------------|------------------|
|---------------------|------------------|
|---------------------|--8-----5------7--|
|-0-0---0-------------|------------------|
|-0-0---0-------------|----0-0---0-0-----|
|
|-----|     PM  PM--|      PM|   PM|
|---------------------|------------------|
|---------------------|------------------|
|---------------------|------------------|
|-------------7-------|-12-----8-----10--|
|---------9-----------|------------------|
|-0---0-----0---0-0-0-|----0-0---0-0-----|


    N.C.
    PM|       PM--------|       PM-----
||------------------|-----------------|
||o-----------------|-----------------|
||------------------|-----------------|
||--------5-4-------|-------4-5-------|
||o-----5-----------|-----6-----------|
||--0-0-------0-0-0-|-0-0-------0-0-0-|
|
|   PM|   PM  PM--------|   PM  PM-----
||------------------|-----------------|
||o-----------------|-----------------|
||------------------|-----------------|
||------4---7-------|-----5---8-------|
||o-----------------|-----------------|
||--0-0---0---0-0-0-|-0-0---0---0-0-0-|


 ---|         PM--|
|-------------------|-------------------------|
|-------------------|-------------------------|
|-------------------|-------------------------|
|-----------7-------|-12-10--8----10--8-------|
|-----9-10----------|----------12-------12-10-|
|-0-0---------0-0-0-|-------------------------|
|
|---|    PM   PM--|
|-------------------|-------------------------|
|-------------------|-------------------------|
|-------------------|-10--8--------8----------|
|-----7----10-------|-------12-10----12-10--8-|
|-------------------|-------------------------|
|-0-0----0----0-0-0-|-------------------------|


  1.
  N.C.
  PM|       PM--------|       PM--------|        PM--|      PM|   PM|
|-----------------|-----------------|------------------|--------------------||
|-----------------|-----------------|------------------|-------------------o||
|-----------------|-----------------|------------------|--------------------||
|-------5-4-------|-------4-5-------|----------7-------|--8-----5------7----||
|-----5-----------|-----6-----------|-----9-10---------|-------------------o||
|-0-0-------0-0-0-|-0-0-------0-0-0-|-0-0--------0-0-0-|----0-0---0-0-------||
|
| PM|   PM  PM--------|   PM  PM--------|    PM  PM--|      PM|   PM|
|-----------------|-----------------|------------------|--------------------||
|-----------------|-----------------|------------------|-------------------o||
|-----------------|-----------------|------------------|--------------------||
|---------4-------|---------5-------|----------7-------|-12-----8-----10----||
|-----5-----------|-----6-----------|-----9------------|-------------------o||
|-0-0---0---0-0-0-|-0-0---0---0-0-0-|-0-0----0---0-0-0-|----0-0---0-0-------||


    2.
    N.C.
    TP          TP    TP TP   TP   TP     TP   TP TP
||-----------|--------------|-----------|------------|
||o----------|--------------|-----------|------------|
||-----------|--------------|-----------|------------|
||-----------|--------------|-----------|------------|
||o----------|--------------|-----------|------3--6--|
||--0--------|-(0)----7--8--|-7----1----|-4----------|
|
|   TP          TP    TP TP   TP   TP     TP   TP TP
||-----------|--------------|-----------|------------|
||o----------|--------------|-----------|------------|
||-----------|--------------|-----------|------------|
||-----------|--------------|-----------|------------|
||o----------|--------------|-----------|------3--6--|
||--0--------|-(0)----7--8--|-7----1----|-4----------|


  N.C.
  TP          TP    TP TP   TP   TP     TP TP  TP TP
                                                       4x
|----------|--------------|-----------|----------------||
|----------|--------------|-----------|---------------o||
|----------|--------------|-----------|----------------||
|----------|--------------|-----------|----------------||
|----------|--------------|-----------|----3--/6--5---o||
|-0--------|-(0)----7--8--|-7----1----|-4--------------||
|
| TP          TP    TP TP   TP   TP     TP TP  TP TP
|                                                      4x
|----------|--------------|-----------|----------------||
|----------|--------------|-----------|---------------o||
|----------|--------------|-----------|----------------||
|----------|--------------|-----------|----------------||
|----------|--------------|-----------|----3--/6--5---o||
|-0--------|-(0)----7--8--|-7----1----|-4--------------||


                         Q=180
  N.C.                   D5
                        3/4
                         PM|
|-----------|----------|---------||
|-----------|----------|---------||
|-----------|----------|---------||
|--8--------|-5--------|---------||
|-----------|----------|-0-0-----||
|-----------|----------|-0-0-----||
|
|                        PM|
|-----------|----------|---------||
|-----------|----------|---------||
|-----------|----------|---------||
|-----------|----------|---------||
|-10--------|-6--------|-0-0-----||
|-----------|----------|-0-0-----||


   Breakdown
    D5                                D5
   6/4
    PM------------------------------------------------------|
||----------------------------------|-------------------------------|
||o---------------------------------|-------------------------------|
||----------------------------------|-------------------------------|
||----------------------------------|-------------------------------|
||o-0-0-0-0-0-0-0-0-0-0-0-0-0-0-0-0-|-0-0-0-0-0-0-0-0-0-0-0-0-3-6-5-|
||--0-0-0-0-0-0-0-0-0-0-0-0-0-0-0-0-|-0-0-0-0-0-0-0-0-0-0-0-0-------|
|
|   PM------------------------------------------------------|
||----------------------------------|-------------------------------|
||o---------------------------------|-------------------------------|
||----------------------------------|-------------------------------|
||----------------------------------|---------------------------5-4-|
||o-0-0-0-0-0-0-0-0-0-0-0-0-0-0-0-0-|-0-0-0-0-0-0-0-0-0-0-0-0-6-----|
||--0-0-0-0-0-0-0-0-0-0-0-0-0-0-0-0-|-0-0-0-0-0-0-0-0-0-0-0-0-------|


  D5                                D5                      F5G#G5
  PM------------------------------------------------------------|
|---------------------------------|--------------------------------|
|---------------------------------|--------------------------------|
|---------------------------------|--------------------------------|
|---------------------------------|--------------------------------|
|-0-0-0-0-0-0-0-0-0-0-0-0-0-0-0-0-|-0-0-0-0-0-0-0-0-0-0-0-0-3-6-5--|
|-0-0-0-0-0-0-0-0-0-0-0-0-0-0-0-0-|-0-0-0-0-0-0-0-0-0-0-0-0-3-6-5--|
|
| PM------------------------------------------------------------|
|---------------------------------|--------------------------------|
|---------------------------------|--------------------------------|
|---------------------------------|--------------------------------|
|---------------------------------|--------------------------------|
|-0-0-0-0-0-0-0-0-0-0-0-0-0-0-0-0-|-0-0-0-0-0-0-0-0-0-0-0-0-3-6-5--|
|-0-0-0-0-0-0-0-0-0-0-0-0-0-0-0-0-|-0-0-0-0-0-0-0-0-0-0-0-0-3-6-5--|


  D5                             D5
  PM----|       PM----|          PM----|       PM----|
|------------------------------|------------------------------|
|------------------------------|------------------------------|
|------------------------------|------------------------------|
|---------5-8-7---------7-10-8-|---------5-8-7-----------5-4--|
|-0-0-0-0-------0-0-0-0--------|-0-0-0-0-------0-0-0-0-6------|
|-0-0-0-0-------0-0-0-0--------|-0-0-0-0-------0-0-0-0--------|
|
| PM----|       PM----|          PM----|       PM----|
|------------------------------|------------------------------|
|------------------------------|------------------------------|
|------------------------------|------------------------------|
|-----------5-4---------4--7-5-|-----------5-4----------------|
|-0-0-0-0-6-----0-0-0-0--------|-0-0-0-0-6-----0-0-0-0-3-6-5--|
|-0-0-0-0-------0-0-0-0--------|-0-0-0-0-------0-0-0-0--------|


  D5                             D5                    F5G#G5
  PM----|       PM----|          PM----|       PM----------|
|------------------------------|-------------------------------||
|------------------------------|------------------------------o||
|------------------------------|-------------------------------||
|---------5-8-7---------7-10-8-|---------5-8-7-----------------||
|-0-0-0-0-------0-0-0-0--------|-0-0-0-0-------0-0-0-0-3-6-5--o||
|-0-0-0-0-------0-0-0-0--------|-0-0-0-0-------0-0-0-0-3-6-5---||
|
| PM----|       PM----|          PM----|       PM----------|
|------------------------------|-------------------------------||
|------------------------------|------------------------------o||
|------------------------------|-------------------------------||
|-----------5-4---------4--7-5-|-----------5-4-----------------||
|-0-0-0-0-6-----0-0-0-0--------|-0-0-0-0-6-----0-0-0-0-3-6-5--o||
|-0-0-0-0-------0-0-0-0--------|-0-0-0-0-------0-0-0-0-3-6-5---||


   Interlude
    Q=130
    G5
   4/4
    Gtr III
||--------------------------|-------------------------|
||o-------------10----10h11-|-------------10----10h11-|
||--------12----------------|-------12----------------|
||-----12----12----12-------|----12----12----12-------|
||o-10----------------------|-10----------------------|
||--------------------------|-------------------------|
|
|   Gtr IV
||--------------------------|-------------------------|
||o-------------------------|-------------------------|
||--------------------------|-------------------------|
||---5----------------------|--5----------------------|
||o--5----------------------|--5----------------------|
||---5----------------------|--5----------------------|


  Eb5                       F#5
                                                      4x
|-------------------------|---------------------------||
|-------10----11----11p10-|-------10----11----15-11--o||
|----12----12-------------|-13-------12----12---------||
|-13-------------13-------|----12---------------------||
|-------------------------|--------------------------o||
|-------------------------|---------------------------||
|
|                                                     4x
|-------------------------|---------------------------||
|-------------------------|--------------------------o||
|-------------------------|---------------------------||
|--1----------------------|--4------------------------||
|--1----------------------|--4-----------------------o||
|--1----------------------|--4------------------------||


 Guitar Solo
  G5                                   G5
  Gtr V
   PM|
|------------------------------------|---------------------------------------|
|--------------------------15--------|---------------------------------------|
|------------15---14------------15---|-(15)-14-17---14---15---14-------------|
|-------17---------------------------|-----------------------------17--------|
|----17------------------------------|---------------------------------------|
|-17---------------------------------|---------------------------------------|
|
| Gtr IV
|        PM------------------------|            PM------------------------|
|------------------------------------|---------------------------------------|
|------------------------------------|---------------------------------------|
|------------------------------------|---------------------------------------|
|--5---------------------------------|---5-----------------------------------|
|--5-----5-5--5-5--5-5-5-5--5-5--5-5-|---5------5-5--5-5--5-5--5-5--5-5-5-5--|
|--5-----5-5--5-5--5-5-5-5--5-5--5-5-|---5------5-5--5-5--5-5--5-5--5-5-5-5--|


  Eb5
|--------------------------/17-------|
|----20------------------------------|
|-------19---20---20-----------------|
|-17---------------------------------|
|------------------------------------|
|------------------------------------|
|
|        PM------------------------|
|------------------------------------|
|------------------------------------|
|------------------------------------|
|--1---------------------------------|
|--1-----1-1--1-1--1-1-1-1---1-1-1-1-|
|--1-----1-1--1-1--1-1-1-1---1-1-1-1-|


  F#5
|-(17)-15-15---14---14---11-----------------|
|-----------------------------15---(15)\----|
|-------------------------------------------|
|-------------------------------------------|
|-------------------------------------------|
|-------------------------------------------|
|
|          PM----------------------------|
|-------------------------------------------|
|-------------------------------------------|
|-------------------------------------------|
|---4---------------------------------------|
|---4------4-4--4-4--4-4--4-4--4-4---4---4--|
|---4------4-4--4-4--4-4--4-4--4-4---4---4--|


  G5
|----------12-14-15-14-15-17-15-14-12------------|
|-------15----------------------------15---------|
|----15----------------------------------15------|
|-17----------------------------------------17---|
|------------------------------------------------|
|------------------------------------------------|
|
|              PM------------------------------|
|------------------------------------------------|
|------------------------------------------------|
|------------------------------------------------|
|--5---------------------------------------------|
|--5-----------5--5--5--5--5--5--5--5--5--5--5-5-|
|--5-----------5--5--5--5--5--5--5--5--5--5--5-5-|


  G5
|----------12-14-15-14-15-17-15-14-12------------|
|-------15----------------------------15---------|
|----15----------------------------------15------|
|-17----------------------------------------17---|
|------------------------------------------------|
|------------------------------------------------|
|
|              PM------------------------------|
|------------------------------------------------|
|------------------------------------------------|
|------------------------------------------------|
|--5---------------------------------------------|
|--5-----------5--5--5--5--5--5--5--5--5--5--5-5-|
|--5-----------5--5--5--5--5--5--5--5--5--5--5-5-|


  Eb5
|------------------------------------|
|----------------11--------15--------|
|---------------------12--------15---|
|-8----12----------------------------|
|---10------13-----------------------|
|------------------------------------|
|
|       PM-------------------------|
|------------------------------------|
|------------------------------------|
|------------------------------------|
|-1----------------------------------|
|-1-----1-1--1-1--1-1--1-1--1-1--1-1-|
|-1-----1-1--1-1--1-1--1-1--1-1--1-1-|


  F#5
|-------15-14---11---------------------------|
|--------------------15---13-----------------|
|-(15)\------------------------14---(14)\----|
|--------------------------------------------|
|--------------------------------------------|
|--------------------------------------------|
|
|           PM----------------------------|
|--------------------------------------------|
|--------------------------------------------|
|--------------------------------------------|
|---4----------------------------------------|
|---4-------4-4--4-4--4-4--4-4--4-4---4---4--|
|---4-------4-4--4-4--4-4--4-4--4-4---4---4--|


    G5
    Gtr I
||--15p12-0-0-0-0-14-0-15p12-0-0-0-0-14-0-|
||o---------------------------------------|
||----------------------------------------|
||----------------------------------------|
||o---------------------------------------|
||----------------------------------------|
|
|   Gtr II
||--19p15-0-0-0-0-17-0-19p15-0-0-0-0-17-0-|
||o---------------------------------------|
||----------------------------------------|
||----------------------------------------|
||o---------------------------------------|
||----------------------------------------|
|
|   Gtr IV
|             PM------------------------|
||----------------------------------------|
||o---------------------------------------|
||----------------------------------------|
||---5------------------------------------|
||o--5--------5-5--5-5--5--5-5-5-5-5--5-5-|
||---5--------5-5--5-5--5--5-5-5-5-5--5-5-|


  G5
|-15p12-0-0-0-0-14-0-15p12-0-0-0-0-14-0-|
|---------------------------------------|
|---------------------------------------|
|---------------------------------------|
|---------------------------------------|
|---------------------------------------|
|
|-19p15-0-0-0-0-17-0-19p15-0-0-0-0-17-0-|
|---------------------------------------|
|---------------------------------------|
|---------------------------------------|
|---------------------------------------|
|---------------------------------------|
|
|           PM------------------------|
|---------------------------------------|
|---------------------------------------|
|---------------------------------------|
|--5------------------------------------|
|--5--------5-5--5-5--5--5-5-5-5-5--5-5-|
|--5--------5-5--5-5--5--5-5-5-5-5--5-5-|


  Eb5
|-19p15-0-0-0-0-17-0-19p15-0-0-0-0-17-0-|
|---------------------------------------|
|---------------------------------------|
|---------------------------------------|
|---------------------------------------|
|---------------------------------------|
|
|-15p12-0-0-0-0-14-0-15p12-0-0-0-0-14-0-|
|---------------------------------------|
|---------------------------------------|
|---------------------------------------|
|---------------------------------------|
|---------------------------------------|
|
|           PM------------------------|
|---------------------------------------|
|---------------------------------------|
|---------------------------------------|
|--1------------------------------------|
|--1--------1-1--1-1--1--1-1-1-1-1--1-1-|
|--1--------1-1--1-1--1--1-1-1-1-1--1-1-|


  F#5
|-19p15-0-0-0-0-17-0-19p15-0-0-0-0-17-0--||
|---------------------------------------o||
|----------------------------------------||
|----------------------------------------||
|---------------------------------------o||
|----------------------------------------||
|
|-15p12-0-0-0-0-14-0-15p12-0-0-0-0-14-0--||
|---------------------------------------o||
|----------------------------------------||
|----------------------------------------||
|---------------------------------------o||
|----------------------------------------||
|
|           PM------------------------|
|----------------------------------------||
|---------------------------------------o||
|----------------------------------------||
|--4-------------------------------------||
|--4--------4-4--4-4--4--4-4-4-4-4--4-4-o||
|--4--------4-4--4-4--4--4-4-4-4-4--4-4--||


 Verse
  Q=254
  D5N.C.
|-----------------|-----------------|
|-----------------|-----------------|
|-----------------|-----------------|
|-----------------|-----------------|
|-0---------------|-----------------|
|-0---------------|-----------------|
|
| PM|   PM  PM  PM      PM    PM
|-----------------|-----------------|
|-----------------|-----------------|
|-----------------|-----------------|
|-----------------|-----------------|
|-----4---5---0---|-4s5---5s7---7s8-|
|-0-0---0---0---0-|-----0-----0-----|


    N.C.
    PM|   PM  PM  PM      PM    PM       PM|   PM  PM  PM      PM    PM
||------------------|------------------|-----------------|-----------------|
||o-----------------|------------------|-----------------|-----------------|
||------------------|------------------|-----------------|-----------------|
||------------------|------------------|-----------------|-----------------|
||o-----4---5---4---|-5s7---7s8---8s10-|-----4---5---0---|-4s5---5s7---7s8-|
||--0-0---0---0---0-|-----0-----0------|-0-0---0---0---0-|-----0-----0-----|
|
|   PM|   PM  PM  PM      PM    PM       PM|   PM  PM  PM      PM    PM
||------------------|------------------|-----------------|-----------------|
||o-----------------|------------------|-----------------|-----------------|
||------------------|------------------|-----------------|-----------------|
||------------------|------------------|-----------------|-----------------|
||o-----4---5---4---|-5s7---7s8---8s10-|-----4---5---0---|-4s5---5s7---7s8-|
||--0-0---0---0---0-|-----0-----0------|-0-0---0---0---0-|-----0-----0-----|


                                      1.
  N.C.
  PM|   PM  PM  PM      PM    PM       PM|   PM  PM  PM      PM    PM
|-----------------|------------------|-----------------|-------------------||
|-----------------|------------------|-----------------|------------------o||
|-----------------|------------------|-----------------|-------------------||
|-----------------|------------------|-----------------|-------------------||
|-----4---5---4---|-5s7---7s8---10p7-|-----4---5---0---|-4s5---5s7---7s8--o||
|-0-0---0---0---0-|-----0-----0------|-0-0---0---0---0-|-----0-----0-------||
|
| PM|   PM  PM  PM      PM    PM       PM|   PM  PM  PM      PM    PM
|-----------------|------------------|-----------------|-------------------||
|-----------------|------------------|-----------------|------------------o||
|-----------------|------------------|-----------------|-------------------||
|-----------------|------------------|-----------------|-------------------||
|-----4---5---4---|-5s7---7s8---10p7-|-----4---5---0---|-4s5---5s7---7s8--o||
|-0-0---0---0---0-|-----0-----0------|-0-0---0---0---0-|-----0-----0-------||


   Out Chorus
    2.
    N.C.
    TP TP TP TP   TP TP TP TP   TP TP TP TP   TP TP TP TP
||--------------|-------------|-------------|-------------|
||o-------------|-------------|-------------|-------------|
||--------------|-------------|-------------|-------------|
||-----------7--|-5-----------|-------------|-------7-----|
||o----4--5-----|----8--7--8--|----8--7--8--|----8-----8--|
||--0-----------|-------------|-8-----------|-8-----------|
|
|   TP TP TP TP   TP TP TP TP   TP TP TP TP   TP TP TP TP
||--------------|-------------|-------------|-------------|
||o-------------|-------------|-------------|-------------|
||--------------|-------------|-------------|-------------|
||--------------|-------------|-------------|-------------|
||o----4--5--8--|-7--5--4--5--|----5--4--5--|----5--8--5--|
||--0-----------|-------------|-8-----------|-8-----------|


                             1.
  N.C.                                            F5 E5
  TP TP TP TP   TP TP TP TP   TP TP TP TP   TP TP PM-|
|-------------|-------------|-------------|---------------||
|-------------|-------------|-------------|--------------o||
|-------------|-------------|-------------|---------------||
|----------7--|-5-----------|-------------|---------------||
|----4--5-----|----8--7--8--|----8--7--8--|----8--3--2---o||
|-0-----------|-------------|-8-----------|-8-----3--2----||
|
| TP TP TP TP   TP TP TP TP   TP TP TP TP   TP TP PM-|
|-------------|-------------|-------------|---------------||
|-------------|-------------|-------------|--------------o||
|-------------|-------------|-------------|---------------||
|-------------|-------------|-------------|---------------||
|----4--5--8--|-7--5--4--5--|----5--4--5--|----5--3--2---o||
|-0-----------|-------------|-8-----------|-8-----3--2----||


  2.
  N.C.                F5 E5   D5
  TP TP TP TP   TP TP PM------|
|-------------|-------------|--------*|
|-------------|-------------|--------*|
|-------------|-------------|--------*|
|-------------|-------------|--------*|
|----8--7--8--|----8--3--2--|-0------*|
|-8-----------|-8-----3--2--|-0------*|
|
| TP TP TP TP   TP TP PM------|
|-------------|-------------|--------*|
|-------------|-------------|--------*|
|-------------|-------------|--------*|
|-------------|-------------|--------*|
|----5--4--5--|----5--3--2--|-0------*|
|-8-----------|-8-----3--2--|-0------*|


____________________________________________________
____________________________________________________
____________________________________________________
_________________Bringing of Truth__________________
____________________________________________________
____________________________________________________


Gtr I (B F# B E G# C#) - 'Guitar I'
Gtr II (B F# B E F# B) - 'Guitar II'

 2/4         4/4
  Gtrs I, II
      PM|
|---------||----------------------------------|
|---------||o---------------------------------|
|---------||----------------------------------|
|---------||----------------------------------|
|-8-7-1-1-||o-----7---8-------4---7-------5---|
|-8-7-1-1-||--0-0---0---0-0-0---0---0-0-0---0-|


|----------------------------------|
|----------------------------------|
|----------------------------------|
|----------------------------------|
|-----7---8-------4---7-------5----|
|-0-0---0---0-0-0---0---0-0-0---0--|


  1.
  Gtr I
|--------------------------------------------------||
|-------------------------------------------------o||
|--------------------------------------------------||
|-------------------------------7-7-7-5-5-5--------||
|-5-5-5-8-8-8-7-7-7-8-8-8-4-4-4-------------8-8-8-o||
|--------------------------------------------------||
|
| Gtr II
|--------------------------------------------------||
|-------------------------------------------------o||
|--------------------------------------------------||
|--------------------------------------------------||
|-------5-5-5-4-4-4-5-5-5-------8-8-8-7-7-7-5-5-5-o||
|-8-8-8-------------------7-7-7--------------------||


  2.
                              PM|
|---------------------------------|
|---------------------------------|
|---------------------------------|
|---------------------------------|
|-5-5-5-8-8-8-7-7-7-8-8-8-8-7-1-1-|
|-------------------------8-7-1-1-|
|
|                             PM|
|---------------------------------|
|---------------------------------|
|---------------------------------|
|---------------------------------|
|-------5-5-5-4-4-4-5-5-5-8-7-1-1-|
|-8-8-8-------------------8-7-1-1-|


    Gtrs I, II
||----------------------------------|----------------------------------|
||o---------------------------------|----------------------------------|
||----------------------------------|----------------------------------|
||----------------------------------|----------------------------------|
||o-----7---8-------4---7-------5---|-----7---8-------4---7-------5----|
||--0-0---0---0-0-0---0---0-0-0---0-|-0-0---0---0-0-0---0---0-0-0---0--|


  1.
  Gtr I
|--------------------------------------------------||
|-------------------------------------------------o||
|--------------------------------------------------||
|-------------------------------7-7-7-5-5-5--------||
|-5-5-5-8-8-8-7-7-7-8-8-8-4-4-4-------------8-8-8-o||
|--------------------------------------------------||
|
| Gtr II
|--------------------------------------------------||
|-------------------------------------------------o||
|--------------------------------------------------||
|--------------------------------------------------||
|-------5-5-5-4-4-4-5-5-5-------8-8-8-7-7-7-5-5-5-o||
|-8-8-8-------------------7-7-7--------------------||


  2.
                              PM|
|---------------------------------|
|---------------------------------|
|---------------------------------|
|---------------------------------|
|-5-5-5-8-8-8-7-7-7-8-8-8-8-7-1-1-|
|-------------------------8-7-1-1-|
|
|                             PM|
|---------------------------------|
|---------------------------------|
|---------------------------------|
|---------------------------------|
|-------5-5-5-4-4-4-5-5-5-8-7-1-1-|
|-8-8-8-------------------8-7-1-1-|


||----------------------------|
||o---------------------------|
||----------------------------|
||----------------------------|
||o-0-0--0-0-0-0-0-0--0-0-0-0-|
||--0-0--0-0-0-0-0-0--0-0-0-0-|
|
||----------------------------|
||o---------------------------|
||----------------------------|
||----------------------------|
||o-0-0--0-0-0-0-0-0--0-0-0-0-|
||--0-0--0-0-0-0-0-0--0-0-0-0-|


|-------------------------------------------------|---------------------------|
|-------------------------------------------------|---------------------------|
|-------------------------------------------------|---------------------------|
|-7-7-7-7-7-7-7-7-7-5-5-5-2-2-2-2-2-2-5-5-5-5-5-5-|---------------------------|
|-------------------------------------------------|-0-0--0-0-0-0-0-0--0-0-0-0-|
|-------------------------------------------------|-0-0--0-0-0-0-0-0--0-0-0-0-|
|
|-------------------------------------------------|---------------------------|
|-------------------------------------------------|---------------------------|
|-------------------------------------------------|---------------------------|
|-------------------------------------------------|---------------------------|
|-8-8-8-8-8-8-8-8-8-7-7-7-4-4-4-4-4-4-7-7-7-7-7-7-|-0-0--0-0-0-0-0-0--0-0-0-0-|
|-------------------------------------------------|-0-0--0-0-0-0-0-0--0-0-0-0-|


|---------------------------------------------------------||---------------------------------|
|--------------------------------------------------------o||---------------------------------|
|---------------------------------------------------------||---------------------------------|
|---------------------------------------------------------||-0-------------------------------|
|-4-4-4-4-4-4-4-4-4-8-8-8--7--7--7--7--7--7-5-5-5-5-5-5--o||-0-------------------------------|
|---------------------------------------------------------||-0-------------------------------|
|
|---------------------------------------------------------||---------------------------------|
|--------------------------------------------------------o||---------------------------------|
|---------------------------------------------------------||---------------------------------|
|---------------------------------------------------------||---------------------------------|
|-------------------5-5-5--------------------------------o||-----7---8-------4---7-------5---|
|-7-7-7-7-7-7-7-7-7-------11-11-11-11-11-11-8-8-8-8-8-8---||-0-0---0---0-0-0---0---0-0-0---0-|


|---------------------------------|--------------------------------------------------------|
|---------------------------------|--------------------------------------------------------|
|---------------------------------|--------------------------------------------------------|
|-0-------------------------------|--------------------------------------------------------|
|-0-------------------------------|-8---8---------------------7---7------------------------|
|-0-------------------------------|-8---8---------------------7---7------------------------|
|
|---------------------------------|--------------------------------------------------------|
|---------------------------------|--------------------------------------------------------|
|---------------------------------|--------------------------------------------------------|
|---------------------------------|--------------------------------------------------------|
|-----7---8-------4---7-------5---|---------5-5-5-4-4-4-5-5-5---------8-8-8-7-7-7-5-5-5----|
|-0-0---0---0-0-0---0---0-0-0---0-|-8-8---8-------------------7-7---7----------------------|


|-||----------------------------------|---------------------------------|
|-||o---------------------------------|---------------------------------|
|-||----------------------------------|---------------------------------|
|-||----------------------------------|---------------------------------|
|-||o-----7---8-------4---7-------5---|-----7---8-------4---7-------5---|
|-||--0-0---0---0-0-0---0---0-0-0---0-|-0-0---0---0-0-0---0---0-0-0---0-|
|
|-||----------------------------------|---------------------------------|
|-||o---------------------------------|---------------------------------|
|-||----------------------------------|---------------------------------|
|-||----------------------------------|---------------------------------|
|-||o-----7---8-------4---7-------5---|-----7---8-------4---7-------5---|
|-||--0-0---0---0-0-0---0---0-0-0---0-|-0-0---0---0-0-0---0---0-0-0---0-|


  1.                                                  2.
                                                                                  PM|
|--------------------------------------------------||-----------------------------------|
|-------------------------------------------------o||-----------------------------------|
|--------------------------------------------------||-----------------------------------|
|-------------------------------7-7-7-5-5-5--------||-----------------------------------|
|-5-5-5-8-8-8-7-7-7-8-8-8-4-4-4-------------8-8-8-o||-5-5-5-8-8-8-7-7-7-8-8-8-8-7-1-1---|
|--------------------------------------------------||-------------------------8-7-1-1---|
|
|                                                                                 PM|
|--------------------------------------------------||-----------------------------------|
|-------------------------------------------------o||-----------------------------------|
|--------------------------------------------------||-----------------------------------|
|--------------------------------------------------||-----------------------------------|
|-------5-5-5-4-4-4-5-5-5-------8-8-8-7-7-7-5-5-5-o||-------5-5-5-4-4-4-5-5-5-8-7-1-1---|
|-8-8-8-------------------7-7-7--------------------||-8-8-8-------------------8-7-1-1---|


|-||----------------------------------|---------------------------------|
|-||o---------------------------------|---------------------------------|
|-||----------------------------------|---------------------------------|
|-||----------------------------------|---------------------------------|
|-||o-----7---8-------4---7-------5---|-----7---8-------4---7-------5---|
|-||--0-0---0---0-0-0---0---0-0-0---0-|-0-0---0---0-0-0---0---0-0-0---0-|
|
|-||----------------------------------|---------------------------------|
|-||o---------------------------------|---------------------------------|
|-||----------------------------------|---------------------------------|
|-||----------------------------------|---------------------------------|
|-||o-----7---8-------4---7-------5---|-----7---8-------4---7-------5---|
|-||--0-0---0---0-0-0---0---0-0-0---0-|-0-0---0---0-0-0---0---0-0-0---0-|


  1.                                                  2.
                                                                                  PM|
|--------------------------------------------------||-----------------------------------|
|-------------------------------------------------o||-----------------------------------|
|--------------------------------------------------||-----------------------------------|
|-------------------------------7-7-7-5-5-5--------||-----------------------------------|
|-5-5-5-8-8-8-7-7-7-8-8-8-4-4-4-------------8-8-8-o||-5-5-5-8-8-8-7-7-7-8-8-8-8-7-1-1---|
|--------------------------------------------------||-------------------------8-7-1-1---|
|
|                                                                                 PM|
|--------------------------------------------------||-----------------------------------|
|-------------------------------------------------o||-----------------------------------|
|--------------------------------------------------||-----------------------------------|
|--------------------------------------------------||-----------------------------------|
|-------5-5-5-4-4-4-5-5-5-------8-8-8-7-7-7-5-5-5-o||-------5-5-5-4-4-4-5-5-5-8-7-1-1---|
|-8-8-8-------------------7-7-7--------------------||-8-8-8-------------------8-7-1-1---|


||----------------------------|
||o---------------------------|
||----------------------------|
||----------------------------|
||o-0-0--0-0-0-0-0-0--0-0-0-0-|
||--0-0--0-0-0-0-0-0--0-0-0-0-|
|
||----------------------------|
||o---------------------------|
||----------------------------|
||----------------------------|
||o-0-0--0-0-0-0-0-0--0-0-0-0-|
||--0-0--0-0-0-0-0-0--0-0-0-0-|


|-------------------------------------------------|---------------------------|
|-------------------------------------------------|---------------------------|
|-------------------------------------------------|---------------------------|
|-7-7-7-7-7-7-7-7-7-5-5-5-2-2-2-2-2-2-5-5-5-5-5-5-|---------------------------|
|-------------------------------------------------|-0-0--0-0-0-0-0-0--0-0-0-0-|
|-------------------------------------------------|-0-0--0-0-0-0-0-0--0-0-0-0-|
|
|-------------------------------------------------|---------------------------|
|-------------------------------------------------|---------------------------|
|-------------------------------------------------|---------------------------|
|-------------------------------------------------|---------------------------|
|-8-8-8-8-8-8-8-8-8-7-7-7-4-4-4-4-4-4-7-7-7-7-7-7-|-0-0--0-0-0-0-0-0--0-0-0-0-|
|-------------------------------------------------|-0-0--0-0-0-0-0-0--0-0-0-0-|


|--------------------------------------------------------||
|-------------------------------------------------------o||
|--------------------------------------------------------||
|--------------------------------------------------------||
|-4-4-4-4-4-4-4-4-4-8-8-8--7--7--7--7--7--7-5-5-5-5-5-5-o||
|--------------------------------------------------------||
|
|--------------------------------------------------------||
|-------------------------------------------------------o||
|--------------------------------------------------------||
|--------------------------------------------------------||
|-------------------5-5-5-------------------------------o||
|-7-7-7-7-7-7-7-7-7-------11-11-11-11-11-11-8-8-8-8-8-8--||


|-||--------------------------------------------------|
|-||o-------------------------------------------------|
|-||--------------------------------------------------|
|-||--------------------------------------------------|
|-||o-------------------7-7-7-8-8-8-8-8-8-------------|
|-||--0-0-0-0-0-0-0-0-0-------------------7-7-7-7-7-7-|
|
|-||--------------------------------------------------|
|-||o-------------------------------------------------|
|-||--------------------------------------------------|
|-||--------------------------------------------------|
|-||o-------------------7-7-7-8-8-8-8-8-8-------------|
|-||--0-0-0-0-0-0-0-0-0-------------------7-7-7-7-7-7-|


  Gtrs I, II
|-------------------------------------------------|-------------------------------------------------|
|-------------------------------------------------|-------------------------------------------------|
|-------------------------------------------------|-------------------------------------------------|
|-------------------------------7-7-7-------------|-------------------------------------------------|
|-------------------7-7-7-8-8-8-------8-8-8-8-8-8-|-------------------7-7-7-8-8-8-8-8-8-------------|
|-0-0-0-0-0-0-0-0-0-------------------------------|-0-0-0-0-0-0-0-0-0-------------------7-7-7-7-7-7-|


|-----------------------------------------------------||
|----------------------------------------------------o||
|-----------------------------------------------------||
|-----------------------------------------------------||
|-------8-8-8-7-7-7-------7-7-7-8-8-8-------7-7-7----o||
|-8-8-8-------------7-7-7-------------5-5-5-----------||


||--------------------------------------------------|
||o-------------------------------------------------|
||--------------------------------------------------|
||--0-----------------------------------------------|
||o-0-----------------------------------------------|
||--0-----------------------------------------------|
|
||--------------------------------------------------|
||o-------------------------------------------------|
||--------------------------------------------------|
||--------------------------------------------------|
||o-------------------7-7-7-8-8-8-8-8-8-------------|
||--0-0-0-0-0-0-0-0-0-------------------7-7-7-7-7-7-|


|--------------------------------------------------|
|--------------------------------------------------|
|--------------------------------------------------|
|-7------------------------------------------------|
|-7------------------------------------------------|
|-7------------------------------------------------|
|
|--------------------------------------------------|
|--------------------------------------------------|
|--------------------------------------------------|
|-------------------------------7-7-7--------------|
|-------------------7-7-7-8-8-8-------8-8-8-8-8-8--|
|-0-0-0-0-0-0-0-0-0--------------------------------|


|-------------------------------------------------|
|-------------------------------------------------|
|-------------------------------------------------|
|-3-----------------------------------------------|
|-3-----------------------------------------------|
|-3-----------------------------------------------|
|
|-------------------------------------------------|
|-------------------------------------------------|
|-------------------------------------------------|
|-------------------------------------------------|
|-------------------7-7-7-8-8-8-8-8-8-------------|
|-0-0-0-0-0-0-0-0-0-------------------7-7-7-7-7-7-|


|---------------------------------------------------||
|--------------------------------------------------o||
|---------------------------------------------------||
|-8-----------------------7-----------5-------------||
|-8-----------------------7-----------5------------o||
|-8-----------------------7-----------5-------------||
|
|---------------------------------------------------||
|--------------------------------------------------o||
|---------------------------------------------------||
|---------------------------------------------------||
|-------8-8-8-7-7-7-------7-7-7-8-8-8-------7-7-7--o||
|-8-8-8-------------7-7-7-------------5-5-5---------||


||--------------------------------------|--------------------------------|
||o-------------------------------------|--------------------------------|
||--------------------------------------|--------------------------------|
||--------------------------------------|--------------------------------|
||o-8-----------------7-----------------|-8-----------------8-5---8-7-5-4|
||----7-0-0-0-0-0-0-0---7-0-0-0-0-0-0-0-|---7-0-0-0-0-0-0-0-----8--------|
|
||--------------------------------------|--------------------------------|
||o-------------------------------------|--------------------------------|
||--------------------------------------|--------------------------------|
||--------------------------------------|--------------------------------|
||o-8-----------------7-----------------|-8-----------------8-5---8-7-5-4|
||----7-----------------7---------------|---7-------------------8--------|


|-------------------------------------|-----------------------------------||
|-------------------------------------|----------------------------------o||
|-------------------------------------|-----------------------------------||
|-------------------------------------|-----------------------------------||
|-8-----------------7-----------------|-8-----------------8-5---8-10-8-7-o||
|---7-0-0-0-0-0-0-0---7-0-0-0-0-0-0-0-|---7-0-0-0-0-0-0-0-----7-----------||
|
|-------------------------------------|-----------------------------------||
|-------------------------------------|----------------------------------o||
|-------------------------------------|-----------------------------------||
|-------------------------------------|-----------------------------------||
|-8-----------------7-----------------|-8-----------------8-5---8-10-8-7-o||
|---7-----------------7---------------|---7-------------------7-----------||


||---------------------------|-----------------------------|
||o--------------------------|-----------------------------|
||---------------------------|-----------------------------|
||--0-0---------0-0----------|-0-0-------------------------|
||o-0-0---------0-0----------|-0-0---------8-----8-----7---|
||--0-0---------0-0----------|-0-0-----------0-0---0-0---0-|
|
||---------------------------|-----------------------------|
||o--------------------------|-----------------------------|
||---------------------------|-----------------------------|
||---------------------------|-----------------------------|
||o-0-0-5-8-5-7-0-0-7-10-7-8-|-0-0-5-8-5-7-8-----8-----7---|
||--0-0---------0-0----------|-0-0-----------0-0---0-0---0-|


|--------------------------|-------------------------------------||
|--------------------------|------------------------------------o||
|--------------------------|-------------------------------------||
|-0-0---------0-0----------|-0-0---------------------------------||
|-0-0---------0-0----------|-0-0-----------10-5-5-10-5-5-8-5----o||
|-0-0---------0-0----------|-0-0---------------------------------||
|
|--------------------------|-------------------------------------||
|--------------------------|------------------------------------o||
|--------------------------|-------------------------------------||
|--------------------------|-------------------------------------||
|-0-0-5-8-5-7-0-0-7-10-7-8-|-0-0-8-12-8-10-10-5-5-10-5-5-8-5----o||
|-0-0---------0-0----------|-0-0---------------------------------||


|-------------------------------|-------------------------------|
|-------------------------------|-------------------------------|
|-------------------------------|-------------------------------|
|-------------------------------|-------------------------------|
|-0-0-8-12-8-10-0-0-10-13-10-12-|-0-0-8-12-8-10-8-----8-----7---|
|-0-0-----------0-0-------------|-0-0-------------0-0---0-0---0-|
|
|-------------------------------|-------------------------------|
|-------------------------------|-------------------------------|
|-------------------------------|-------------------------------|
|-------------------------------|-------------------------------|
|-0-0-5--8-5--7-0-0--7-10--7--8-|-0-0-5--8-5--7-8-----8-----7---|
|-0-0-----------0-0-------------|-0-0-------------0-0---0-0---0-|


|-------------------------------|--------------------------------------|
|-------------------------------|--------------------------------------|
|-------------------------------|--------------------------------------|
|-------------------------------|--------------------------------------|
|-0-0-8-12-8-10-0-0-10-13-10-12-|-0-0-12-15-12-13-10-5-5-10-5-5-8-5----|
|-0-0-----------0-0-------------|-0-0----------------------------------|
|
|-------------------------------|--------------------------------------|
|-------------------------------|--------------------------------------|
|-------------------------------|--------------------------------------|
|-------------------------------|--------------------------------------|
|-0-0-5--8-5--7-0-0--7-10--7--8-|-0-0--8-12--8-10-10-5-5-10-5-5-8-5----|
|-0-0-----------0-0-------------|-0-0----------------------------------|


    Gtrs I, II
||--------------------------------------------------|
||o-------------------------------------------------|
||--------------------------------------------------|
||--------------------------------------------------|
||o-------------------7-7-7-8-8-8-8-8-8-------------|
||--0-0-0-0-0-0-0-0-0-------------------7-7-7-7-7-7-|


|--------------------------------------------------|
|--------------------------------------------------|
|--------------------------------------------------|
|-------------------------------7-7-7--------------|
|-------------------7-7-7-8-8-8-------8-8-8-8-8-8--|
|-0-0-0-0-0-0-0-0-0--------------------------------|


|-------------------------------------------------|
|-------------------------------------------------|
|-------------------------------------------------|
|-------------------------------------------------|
|-------------------7-7-7-8-8-8-8-8-8-------------|
|-0-0-0-0-0-0-0-0-0-------------------7-7-7-7-7-7-|


|---------------------------------------------------||
|--------------------------------------------------o||
|---------------------------------------------------||
|---------------------------------------------------||
|-------8-8-8-7-7-7-------7-7-7-8-8-8-------7-7-7--o||
|-8-8-8-------------7-7-7-------------5-5-5---------||


|---------------------------------|-------------------------------|
|---------------------------------|-------------------------------|
|---------------------------------|-------------------------------|
|-0-------------------------------|-7-----------------------------|
|-0-------------------------------|-7-----------------------------|
|-0-------------------------------|-7-----------------------------|
|
|---------------------------------|-------------------------------|
|-8-0-0-7-0-0-3-0-0-5-0-0-3-0-1-0-|-0-0-8-0-0-7-0-0-5-0-0-3-0-1-0-|
|---------------------------------|-------------------------------|
|---------------------------------|-------------------------------|
|---------------------------------|-------------------------------|
|---------------------------------|-------------------------------|


|----------------------------------|
|----------------------------------|
|----------------------------------|
|-5--------------------------------|
|-5--------------------------------|
|-5--------------------------------|
|
|-7-0-0-5-0-0-3-0-0-2-0-0-3-0-2-0--|
|----------------------------------|
|----------------------------------|
|----------------------------------|
|----------------------------------|
|----------------------------------|


|------------------|----------------------------------------------------|
|------------------|----------------------------------------------------|
|------------------|----------------------------------------------------|
|-8----------7--5--|--0-------------------------------------------------|
|-8----------7--5--|--0-------------------------------------------------|
|-8----------7--5--|--0-------------------------------------------------|
|
|-8---8-10-8-7--5--|----14-15----14-15----14-15----14-15-17-15-14-15-14-|
|------------------|-13-------13-------13-------13----------------------|
|------------------|----------------------------------------------------|
|------------------|----------------------------------------------------|
|------------------|----------------------------------------------------|
|------------------|----------------------------------------------------|


|------------------------------------------------------|
|------------------------------------------------------|
|------------------------------------------------------|
|--7---------------------------------------------------|
|--7---------------------------------------------------|
|--7---------------------------------------------------|
|
|----12-14----12-14----12-14----12-14-19-19-20-17-19\--|
|-12-------12-------12-------12------------------------|
|------------------------------------------------------|
|------------------------------------------------------|
|------------------------------------------------------|
|------------------------------------------------------|


|----------------------------------------------------|
|----------------------------------------------------|
|----------------------------------------------------|
|--5-------------------------------------------------|
|--5-------------------------------------------------|
|--5-------------------------------------------------|
|
|----14-15----14-15----14-15----14-15-17-15-14-15-14-|
|-13-------13-------13-------13----------------------|
|----------------------------------------------------|
|----------------------------------------------------|
|----------------------------------------------------|
|----------------------------------------------------|


|----------------------------------------------|
|----------------------------------------------|
|----------------------------------------------|
|--8--------------------------7-----------5----|
|--8--------------------------7-----------5----|
|--8--------------------------7-----------5----|
|
|-15-17-19-20-17-19-15-17-15-14-12-14-15-14----|
|----------------------------------------------|
|----------------------------------------------|
|----------------------------------------------|
|----------------------------------------------|
|----------------------------------------------|


|-------------------------------------------------|
|-------------------------------------------------|
|-------------------------------------------------|
|-------------------------------------------------|
|-5-5-5-------------------------------------------|
|-------8-8-8-5-5-5-7-7-7-7-7-7-8-8-8-5-5-5-7-7-7-|
|
|-------------------------------------------------|
|-------------------------------------------------|
|-------------------------------------------------|
|-0-----------------------------------------------|
|-0-----------------------------------------------|
|-0-----------------------------------------------|


|----------------------------------------------------|
|----------------------------------------------------|
|----------------------------------------------------|
|----------------------------------------------------|
|----------------------------------------------------|
|--7--7-7-8-8-8-5-5-5-7-7-7-4-4-4-8-8-8-5-5-5-7-7-7--|
|
|----------------------------------------------------|
|----------------------------------------------------|
|----------------------------------------------------|
|-(0)------------------------------------------------|
|-(0)------------------------------------------------|
|-(0)------------------------------------------------|


|-------------------------------------------------|
|-------------------------------------------------|
|-------------------------------------------------|
|-------------------------------------------------|
|-5-5-5-------------------------------------------|
|-------8-8-8-5-5-5-7-7-7-7-7-7-8-8-8-5-5-5-7-7-7-|
|
|-------------------------------------------------|
|-------------------------------------------------|
|-------------------------------------------------|
|-0-----------------------------------------------|
|-0-----------------------------------------------|
|-0-----------------------------------------------|


|----------------------------------------------------|
|----------------------------------------------------|
|----------------------------------------------------|
|----------------------------------------------------|
|----------------------------------------------------|
|--7--7-7-8-8-8-5-5-5-7-7-7-4-4-4-8-8-8-5-5-5-7-7-7--|
|
|                                       PM------|
|----------------------------------------------------|
|----------------------------------------------------|
|----------------------------------------------------|
|-(0)------------------------------------------------|
|-(0)-----------------------------------0---0---0----|
|-(0)-----------------------------------0---0---0----|


||--------------------------------------------------|
||o-------------------------------------------------|
||--------------------------------------------------|
||--------------------------------------------------|
||o-5-5-5-------------------------------------------|
||--------8-8-8-5-5-5-7-7-7-7-7-7-8-8-8-5-5-5-7-7-7-|
|
||--------------------------------------------------|
||o-------------------------------------------------|
||--------------------------------------------------|
||--0-0-0-0-0-0---0-0-0---0-0-0-0-0-0---0-0-0-------|
||o-0-0-0-0-0-0-0-0-0-0-0-0-0-0-0-0-0-0-0-0-0-0-----|
||--0-0-0-0-0-0-0-0-0-0-0-0-0-0-0-0-0-0-0-0-0-0-----|


                                                    4x
|---------------------------------------------------||
|--------------------------------------------------o||
|---------------------------------------------------||
|---------------------------------------------------||
|--------------------------------------------------o||
|-7-7-7-8-8-8-5-5-5-7-7-7-4-4-4-8-8-8-5-5-5-7-7-7---||
|
|                                                   4x
|---------------------------------------------------||
|--------------------------------------------------o||
|---------------------------------------------------||
|-0-0-0-0-0-0---0-0-0-0-0-0-0-0-0-0-0-0---0-0-0-----||
|-0-0-0-0-0-0-0-0-0-0-0-0-0-0-0-0-0-0-0-0-0-0-0----o||
|-0-0-0-0-0-0-0-0-0-0-0-0-0-0-0-0-0-0-0-0-0-0-0-----||


 2/4
|------||------------------------|-----------------------|
|------||o-----------------------|-----------------------|
|------||------------------------|-----------------------|
|------||--0-0-0-0-0-0---0-0-0---|-0-0-0-0-0-0---0-0-0---|
|-0----||o-0-0-0-0-0-0-0-0-0-0-0-|-0-0-0-0-0-0-0-0-0-0-0-|
|-0----||--0-0-0-0-0-0-0-0-0-0-0-|-0-0-0-0-0-0-0-0-0-0-0-|


|-----------------------|-------------------------||
|-----------------------|------------------------o||
|-----------------------|-------------------------||
|-0-0-0-0-0-0---0-0-0---|-0-0-0-0-0-0---0-0-0-----||
|-0-0-0-0-0-0-0-0-0-0-0-|-0-0-0-0-0-0-0-0-0-0-0--o||
|-0-0-0-0-0-0-0-0-0-0-0-|-0-0-0-0-0-0-0-0-0-0-0---||


______________________________________________________________
____________________________________________________
____________________________________________________
_________________Beneath Dying Skies________________
____________________________________________________
____________________________________________________



Gtr I (C G C F A D) - 'Guitar 1'
Gtr II (C G C F A D) - 'Guitar 2'

  Q=150
 4/4
  Gtr I
         PM|                        PM|
|------------|-------------|------------|--------------|
|------------|-------------|------------|--------------|
|------------|-3----5------|------------|-3----5-------|
|-0----------|-3----5--3-2-|-0----------|-3----5--3-2--|
|-0------0-0-|-1----3------|-0------0-0-|-1----3-------|
|-0------0-0-|-------------|-0------0-0-|--------------|
|
| Gtr II
|        PM|                        PM|
|------------|-------------|------------|--------------|
|------------|-------------|------------|--------------|
|------------|-3----5------|------------|-3----5-------|
|-0----------|-3----5--3-2-|-0----------|-3----5--3-2--|
|-0------0-0-|-1----3------|-0------0-0-|-1----3-------|
|-0------0-0-|-------------|-0------0-0-|--------------|


                          PM--|
|---------------------------------|-----------------------------------|
|---------------------------------|-----------------------------------|
|---------------------------------|-3---------------5-----------------|
|-0-------------------------------|-3---------------5-------3---2-----|
|-0-----------------------0---0---|-1---------------3-----------------|
|-0-----------------------0---0---|-----------------------------------|
|
|---------------------------------|-----------------------------------|
|---------------------------------|-----------------------------------|
|---------------------------------|-----------------------------------|
|-0-0-0-0-8-8-8-8-7-7-7-7-5-5-5-5-|-3-3-3-3-3-3-3-3-2-2-2-2-2-2-2-2---|
|---------------------------------|-----------------------------------|
|---------------------------------|-----------------------------------|


                          PM--|
|---------------------------------|-------------------------------------------|
|---------------------------------|-------------------------------------------|
|---------------------------------|-3----------------5------------------------|
|-0-------------------------------|-3----------------5-----------3-----2------|
|-0-----------------------0---0---|-1----------------3------------------------|
|-0-----------------------0---0---|-------------------------------------------|
|
|---------------------------------|-------------------------------------------|
|---------------------------------|-------------------------------------------|
|---------------------------------|-------------------------------------------|
|-0-0-0-0-8-8-8-8-7-7-7-7-5-5-7-7-|-8-8-8-8-8-8-8-8-10-10-10-10-10-10-10-10---|
|---------------------------------|-------------------------------------------|
|---------------------------------|-------------------------------------------|


                          PM--|
|---------------------------------|-----------------------------------|
|---------------------------------|-----------------------------------|
|---------------------------------|-3---------------5-----------------|
|-0-------------------------------|-3---------------5-------3---2-----|
|-0-----------------------0---0---|-1---------------3-----------------|
|-0-----------------------0---0---|-----------------------------------|
|
|---------------------------------|-----------------------------------|
|---------------------------------|-----------------------------------|
|---------------------------------|-----------------------------------|
|-0-0-0-0-8-8-8-8-7-7-7-7-5-5-5-5-|-3-3-3-3-3-3-3-3-2-2-2-2-2-2-2-2---|
|---------------------------------|-----------------------------------|
|---------------------------------|-----------------------------------|


                          PM--|                                   PM---|
|---------------------------------|--------------------------------------------|
|---------------------------------|--------------------------------------------|
|---------------------------------|-3------------------------------------------|
|-0-------------------------------|-3---------------/10------------------------|
|-0-----------------------0---0---|-1---------------/10-----------0-----0------|
|-0-----------------------0---0---|-----------------/10-----------0-----0------|
|
|---------------------------------|--------------------------------------------|
|---------------------------------|--------------------------------------------|
|---------------------------------|-----------------/12-12-12-12-12-12-12-12---|
|-0-0-0-0-8-8-8-8-7-7-7-7-5-5-7-7-|-8-8-8-8-8-8-8-8----------------------------|
|---------------------------------|--------------------------------------------|
|---------------------------------|--------------------------------------------|


    Gtrs I, II
                                                                       4x
||------------------------------------|--------------------------------||
||o-----------------------------------|-------------------------------o||
||------------------------------------|--------------------------------||
||------------------------------------|--------------------------------||
||o--5-0-7-0-8-0-5-0-7-0-10-0-8-0-7-0-|---7-0-8-0---------8-0-7-0-----o||
||------------------------------------|-8----------8--10-----------10--||


||------------------------------------|---------------------------------------||
||o-----------------------------------|--------------------------------------o||
||------------------------------------|---------------------------------------||
||------------------------------------|---------------------------------------||
||o-5-5-7-7-8-8-5-5-7-7-10-10-8-8-7-7-|-----7-7-8-8-----------8-8-7-7--------o||
||------------------------------------|-8-8---------8-8-10-10---------10-10---||


  Gtr I
|------------------|------------------|------------------|------------------|
|------------------|------------------|------------------|------------------|
|------------------|------------------|------------------|------------------|
|-3-5-7-3-5--8-7-5-|---5-7------7-5---|-3-5-7-3-5--8-7-5-|---5-7------7-5---|
|------------------|-5-----5--7-----7-|------------------|-5-----5--7-----7-|
|------------------|------------------|------------------|------------------|
|
| Gtr II
|------------------|------------------|------------------|------------------|
|------------------|------------------|------------------|------------------|
|------------------|------------------|------------------|------------------|
|------------------|------------------|------------------|------------------|
|-5-7-8-5-7-10-8-7-|---7-8------8-7-5-|-5-7-8-5-7-10-8-7-|---7-8------8-7-5-|
|------------------|-8-----8-10-------|------------------|-8-----8-10-------|


  Gtrs I, II
  PM      PM    PM      PM      PM    PM
|---------------------|---------------------|
|---------------------|---------------------|
|---------------------|---------------------|
|---------------------|---------------------|
|-0---0-0-0-0-0-0-0-0-|-0---0-0-0-0-0-0-0-0-|
|-0---0-0-0-0-0-0-0-0-|-0---0-0-0-0-0-0-0-0-|


  PM      PM    PM      PM      PM    PM
|---------------------|---------------------|
|---------------------|---------------------|
|---------------------|---------------------|
|---------------------|---------------------|
|-0---0-0-0-0-0-0-0-0-|-0---0-0-0-0-0-0-0-0-|
|-0---0-0-0-0-0-0-0-0-|-0---0-0-0-0-0-0-0-0-|


  Gtr I
|---------------------------------|-----------------------------------|
|---------------------------------|-----------------------------------|
|---------------------------------|-----------------------------------|
|---------8-7-----8-8-7-7-5-5-7---|---------8-7-----8-8-7-7-5-5-7-----|
|-5-5-8-7-----8-7-----------------|-5-5-8-7-----8-7-------------------|
|---------------------------------|-----------------------------------|
|
| Gtr II
| PM              PM      PM        PM              PM      PM
|---------------------------------|-----------------------------------|
|---------------------------------|-----------------------------------|
|---------------------------------|-----------------------------------|
|---------------------------------|-----------------------------------|
|-0-----------0-0-0---0-0-0---0-0-|-0-----------0-0-0---0-0-0---0-0---|
|-0-----------0-0-0---0-0-0---0-0-|-0-----------0-0-0---0-0-0---0-0---|


|---------------------------------|-------------------------------------|
|---------------------------------|-------------------------------------|
|---------------------------------|-------------------------------------|
|---------8-7-----8-8-7-7-5-5-7---|-----------8-7-----8-8-7-7-5-5-7-----|
|-----8-7-----8-7-----------------|-------8-7-----8-7-------------------|
|-8-8-----------------------------|-10-10-------------------------------|
|
| PM              PM      PM         PM               PM      PM
|---------------------------------|-------------------------------------|
|---------------------------------|-------------------------------------|
|---------------------------------|-------------------------------------|
|---------------------------------|-------------------------------------|
|-0-----------0-0-0---0-0-0---0-0-|--0------------0-0-0---0-0-0---0-0---|
|-0-----------0-0-0---0-0-0---0-0-|--0------------0-0-0---0-0-0---0-0---|


||-----------------------------|---------------------------------|
||o----------------------------|---------------------------------|
||-----------------------------|---------------------------------|
||------8---7------8---7---7-8-|-------8---7------8---7---7-8----|
||o----------------------------|---------------------------------|
||--0-0---0----0-0---0---0-----|--0--0---0----0-0---0---0--------|
|
||-----------------------------|---------------------------------|
||o----------------------------|---------------------------------|
||-----------------------------|---------------------------------|
||--0--------------------------|-(0)-----------------------------|
||o-0--------------------------|-(0)-----------------------------|
||--0--------------------------|-(0)-----------------------------|


|----------------------------|---------------------------------||
|----------------------------|--------------------------------o||
|----------------------------|---------------------------------||
|-----8---7------8---7---7-8-|------8---7------8---7---7-8-----||
|----------------------------|--------------------------------o||
|-0-0---0----0-0---0---0-----|--0-0---0----0-0---0---0---------||
|
|----------------------------|---------------------------------||
|----------------------------|--------------------------------o||
|----------------------------|---------------------------------||
|-8--------------------------|-10------------------------------||
|-8--------------------------|-10-----------------------------o||
|-8--------------------------|-10------------------------------||


  Q=210
|-------------------------|-----------------|
|-------------------------|-----------------|
|-------------------------|-----------------|
|-7-----------------------|---------------3-|
|-5-----------------------|---------------1-|
|-------------------------|-----------------|
|
|    PM----------------|
|-------------------------|-----------------|
|-------------------------|-----------------|
|-------------------------|-----------------|
|-7-----------------------|-7-8-5-7-3-5-2-3-|
|-5--5-5-5--5-5-5--5-5-5--|---------------1-|
|-------------------------|-----------------|


       PM|                PM|
|------------------|-------------------|
|------------------|-------------------|
|------------------|-------------------|
|-(3)------2-3-5-5-|-(5)------5-3-2----|
|-(1)--1-1-------3-|-(3)--3-3----------|
|------------------|-------------------|
|
|      PM|                PM|
|------------------|-------------------|
|------------------|-------------------|
|------------------|-------------------|
|-(3)------2-3-5-5-|-(5)------5-3-2----|
|-(1)--1-1-------3-|-(3)--3-3----------|
|------------------|-------------------|


    Gtr I
       PM------------------|
||--------------------------|-----------------|
||o-------------------------|-----------------|
||--------------------------|-----------------|
||--7-----------------------|-7-8-5-7-3-5-2-3-|
||o-5--5-5-5--5-5-5--5-5-5--|---------------1-|
||--------------------------|-----------------|
|
|      PM--|  PM---------|
||--------------------------|-----------------|
||o-------------------------|-----------------|
||--------------------------|-----------------|
||--7--7-7-7--7-7-7--7-7-7--|-7-8-5-7-3-5-2-3-|
||o-5--5-5-5--5-5-5--5-5-5--|---------------1-|
||--------------------------|-----------------|


       PM|                PM|
                                        3x
|------------------|--------------------||
|------------------|-------------------o||
|------------------|--------------------||
|-(3)------2-3-5-5-|-(5)------5-3-2-----||
|-(1)--1-1-------3-|-(3)--3-3----------o||
|------------------|--------------------||
|
|      PM|                PM|
|                                       3x
|------------------|--------------------||
|------------------|-------------------o||
|------------------|--------------------||
|-(3)------2-3-5-5-|-(5)------5-3-2-----||
|-(1)--1-1-------3-|-(3)--3-3----------o||
|------------------|--------------------||


  Gtrs I, II
|-------------|---------|-------------|---------|-------------|-------|
|-------------|---------|-------------|---------|-------------|-------|
|-------------|---------|-------------|---------|-------------|-------|
|-------------|---------|-------------|---------|-------------|-------|
|-0--0--0--0--|-0-------|-0--0--0--0--|-0-------|-0--0--0--0--|-0-----|
|-0--0--0--0--|-0-------|-0--0--0--0--|-0-------|-0--0--0--0--|-0-----|


                           Q=150
  Gtr I
|-------------|----------|----------------------|-----------------------|
|-------------|----------|----------------------|-----------------------|
|-------------|----------|----------------------|-----------------------|
|-------------|----------|----------------------|-----------------------|
|-0--0--0--0--|-0--------|-0-0-0-0-0-0-0-0-0----|-0-0-0-0-0-0-0-0-0-----|
|-0--0--0--0--|-0--------|-0-0-0-0-0-0-0-0-0----|-0-0-0-0-0-0-0-0-0-----|
|
| Gtr II
|-------------|----------|----------------------|-----------------------|
|-------------|----------|----------------------|-----------------------|
|-------------|----------|----------------------|-----------------------|
|-------------|----------|----------------------|-----------------------|
|-0--0--0--0--|-0--------|-0-0-0-0-0-0-0-0-0----|-0-0-0-0-0-0-0-0-0-----|
|-0--0--0--0--|-0--------|-0-0-0-0-0-0-0-0-0----|-0-0-0-0-0-0-0-0-0-----|


|----------------------|----------------------||----------------------------|
|----------------------|----------------------||o---------------------------|
|----------------------|----------------------||----------------------------|
|----------------------|----------------------||----------------------------|
|-0-0-0-0-0-0-0-0-0----|-0-0-0-0-0-0-0-0-0----||o-0-0-0-0-0-0-0-0-0---------|
|-0-0-0-0-0-0-0-0-0----|-0-0-0-0-0-0-0-0-0----||--0-0-0-0-0-0-0-0-0---------|
|
|----------------------|----------------------||----------------------------|
|----------------------|----------------------||o---------------------------|
|----------------------|----------------------||----------------------------|
|----------------------|----------------------||----------------------------|
|-0-0-0-0-0-0-0-0-0----|-0-0-0-0-0-0-0-0-0----||o-0-0-0-0-0-0-0-0-0-0-0-0-0-|
|-0-0-0-0-0-0-0-0-0----|-0-0-0-0-0-0-0-0-0----||--0-0-0-0-0-0-0-0-0-0-0-0-0-|


                                Q
|----------------------------||-|
|---------------------------o||-|
|----------------------------||-|
|----------------------------||-|
|-0-0-0-0-0-0-0-0-0---------o||-|
|-0-0-0-0-0-0-0-0-0----------||-|
|
|----------------------------||-|
|---------------------------o||-|
|----------------------------||-|
|----------------------------||-|
|-0-0-0-0-0-0-0-0-0-0-0-0-0-o||-|
|-0-0-0-0-0-0-0-0-0-0-0-0-0--||-|


 =130
                                                        4x
||--------------------------|---------------------------||
||o-------------------------|--------------------------o||
||--------------------------|---------------------------||
||--------------------------|---------------------------||
||o-0-0-0-------0-0-0-------|-0-0-0--------------------o||
||--0-0-0-0-1-4-0-0-0-0-1-4-|-0-0-0-0-1-4-0-1-4-0-1-5---||
|
|                                                       4x
||--------------------------|---------------------------||
||o-------------------------|--------------------------o||
||--------------------------|---------------------------||
||--------------------------|---------------------------||
||o-0-----------0-----------|-0------------------------o||
||--0-----------0-----------|-0-----------0-1-4-0-1-5---||


    Gtrs I, II
||----------------------------------|----------------------------------|
||o---------------------------------|----------------------------------|
||----------------------------------|----------------------------------|
||----------------------------------|----------------------------------|
||o---------------------------------|----------------------------------|
||--0-0-0-0-0-0-0-0-4-4-4-4-4-4-4-4-|-1-1-1-1-1-1-1-1-5-5-5-5-5-5-5-5--|


|---------------------------------|
|---------------------------------|
|---------------------------------|
|---------------------------------|
|---------------------------------|
|-0-0-0-0-0-0-0-0-4-4-4-4-4-4-4-4-|


                                    2/4
|------------------------------||-||--------------|
|-----------------------------o||-||--------------|
|------------------------------||-||--------------|
|------------------------------||-||--------------|
|-----------------4-1-0-5-1-0-o||-||-4-1-0-5-1-0--|
|-1-1-1-1-1-1-1-1-4-1-0-5-1-0--||-||-4-1-0-5-1-0--|


   4/4
||--------------------------|-------------------------|
||o-------------------------|-------------------------|
||--------------------7-7-7-|-------------------------|
||--------0-0-0-7-7-7-------|-------------------------|
||o-------------------------|-4-1-0-5-1-0-4-1-0-5-1-0-|
||--0-0-0-------------------|-4-1-0-5-1-0-4-1-0-5-1-0-|


|-------------------------|---------------------------||
|-------------------------|--------------------------o||
|-------------------9-9-9-|---------------------------||
|-------0-0-0-7-7-7-------|---------------------------||
|-------------------------|-4-1-0-5-1-0-4-1-0-5-1-0--o||
|-0-0-0-------------------|-4-1-0-5-1-0-4-1-0-5-1-0---||


                           1/8
|-------------------------|---*|----|
|-------------------------|---*|----|
|-------------------------|---*|----|
|-------------------------|---*|----|
|-4-1-0-5-1-0-4-1-0-5-1-0-|-0-*|----|
|-4-1-0-5-1-0-4-1-0-5-1-0-|-0-*|----|



______________________________________________________________
____________________________________________________
____________________________________________________
_________The Black Death And Its AfterMath__________
____________________________________________________
____________________________________________________

C ||----------------------------------------------------
G ||----------------------------------------------------
D#||----------------------------------------------------
A#||----------------------------------------------------
F ||--4-------------------------------------------------
C ||----------------------------------------------------
G ||----------------------------------------------------


        5-6 I see that it's a 4 and not an 8 as i was   
  E  E  E                                             E 
|--0-----0-----------------------------------------------
|-----4--------------------------------------------------
|------------------------------------------------------6-
|--------------------------------------------------------
|--------------------------------------------------------
|--------------------------------------------------------
|--------------------------------------------------------


           thinking, but you can't play this arpeggio a 
  E  E  E  E                                            
|--------------------------------------------------------
|--------------------------------------------------------
|--5-----------------------------------------------------
|-----5-----5--------------------------------------------
|--------3-----------------------------------------------
|--------------------------------------------------------
|--------------------------------------------------------


              so play a 9 on the G string if you have a 
  E  E  E  E  E                                         
|--------0-----0-----------------------------------------
|-----------4--------------------------------------------
|-----6--------------------------------------------------
|--------------------------------------------------------
|--4-----------------------------------------------------
|--------------------------------------------------------
|--------------------------------------------------------


                    strings, play an 8 on the C string i
  E  E  E  E   E    E                                   
|--0-----0-----------------------------------------------
|-----4--------------------------------------------------
|-----------6--------------------------------------------
|-------------------10-----------------------------------
|--------------------------------------------------------
|---------------4----------------------------------------
|--------------(9)---------------------------------------


                             one 
  E   E   E    E  E   E  E   E   
|---------------------11---------|
|--------------------------------|
|--8---------------8------8------|
|-----10-------10------------10--|
|--------------------------------|
|----------4---------------------|
|---------(9)--------------------|


  E  E  E  E  E  E  E  E     E  E  E  E  E  E  E  E   
|--------0-----0-----------|--0-----0-----------------|
|-----------4--------------|-----4-----------------4--|
|-----6-----------6-----6--|-----------6--------5-----|
|--------------------------|-----------------5--------|
|--4-----------------4-----|--------------3-----------|
|--------------------------|--------------------------|
|--------------------------|--------------------------|


  E  E  E  E  E  E  E  E     E  E  E  E  E  E  E  E   
|--------------------------|--------0-----0-----------|
|-----------------4--------|-----------4--------------|
|--5-----------5-----5-----|-----6-----------6-----6--|
|-----5-----5-----------5--|--------------------------|
|--------3-----------------|--4-----------------4-----|
|--------------------------|--------------------------|
|--------------------------|--------------------------|


  E  E  E  E   E    E  E   E   
|--0-----0-----------------11--|
|-----4------------------------|
|-----------6-----------8------|
|-------------------10---------|
|------------------------------|
|---------------4--------------|
|--------------(9)-------------|


  E   E   E    E  E   E  E   E   
|---------------------11---------|
|--------------------------------|
|--8---------------8------8------|
|-----10-------10------------10--|
|--------------------------------|
|----------4---------------------|
|---------(9)--------------------|


  E  E  E  E  E  E  E  E   
|-----------3--------------|
|--------7-----7-----------|
|-----4-----------4-----4--|
|--2-----------------2-----|
|--------------------------|
|--------------------------|
|--------------------------|


  You can play all this part a string under,            
  E                                          E  E  E  E 
|---------------------------------------------3----------|
|--7---------------------------------------------7-------|
|---------------------------------------------------4----|
|------------------------------------------------------1-|
|--------------------------------------------------------|
|--------------------------------------------------------|
|--------------------------------------------------------|


  E  E  E  E  E  E  E  E   
|-----------------2--------|
|--4-----------4-----4-----|
|-----4-----4-----------4--|
|--------1-----------------|
|--------------------------|
|--------------------------|
|--------------------------|


           but that does not sound as well as on the alb
  E  E  E  E                                            
|--------------------------------------------------------
|-----------2--------------------------------------------
|--------2-----------------------------------------------
|-----2--------------------------------------------------
|--0-----------------------------------------------------
|--------------------------------------------------------
|--------------------------------------------------------


  E  E  E  E  E  E  E  E     E  E  E  E  E  E  E  E   
|--------------------------|--------------------------|
|-----2-----------------4--|-----------------4--------|
|--2-----2-----------5-----|--5-----------5-----5-----|
|-----------2-----6--------|-----6-----6-----------6--|
|--------------3-----------|--------3-----------------|
|--------------------------|--------------------------|
|--------------------------|--------------------------|


   E  E  E  E  E  E  E  E     E  E  E  E  E  E  E  E   
|--------0-----0-----------|--0-----0-----------------|
|-----------4--------------|-----4-----------------4--|
|-----6-----------6-----6--|-----------6--------5-----|
|--------------------------|-----------------5--------|
|--4-----------------4-----|--------------3-----------|
|--------------------------|--------------------------|
|--------------------------|--------------------------|


  E  E  E  E  E  E  E  E     E  E  E  E  E  E  E  E   
|--------------------------|--------0-----0-----------|
|-----------------4--------|-----------4--------------|
|--5-----------5-----5-----|-----6-----------6-----6--|
|-----5-----5-----------5--|--------------------------|
|--------3-----------------|--4-----------------4-----|
|--------------------------|--------------------------|
|--------------------------|--------------------------|


  E  E  E  E   E    E  E   E   
|--0-----0-----------------11--|
|-----4------------------------|
|-----------6-----------8------|
|-------------------10---------|
|------------------------------|
|---------------4--------------|
|--------------(9)-------------|


  E   E   E    E  E   E  E   E     
|---------------------11----------||
|---------------------------------||
|--8---------------8------8-------||
|-----10-------10------------10---||
|---------------------------------||
|----------4----------------------||
|---------(9)---------------------||


  E  E  E  E  E  E  E  E   
|-----------3--------------|
|--------7-----7-----------|
|-----4-----------4-----4--|
|--2-----------------2-----|
|--------------------------|
|--------------------------|
|--------------------------|


     That's the same here...                    
  E  E                       E  E  E  E  E  E   
|-----3--------------------------------------2--|
|--7--------------------------7-----------4-----|
|--------------------------------4-----4--------|
|-----------------------------------1-----------|
|-----------------------------------------------|
|-----------------------------------------------|
|-----------------------------------------------|


  E  E  E  E  E  E  E  E     E  E  E  E  E  E  E  E   
|-----------------2--------|--------------------------|
|--4-----------4-----4-----|-----------2--------------|
|-----4-----4-----------4--|--------2-----2-----------|
|--------1-----------------|-----2-----------2-----2--|
|--------------------------|--0-----------------0-----|
|--------------------------|--------------------------|
|--------------------------|--------------------------|


  E  E  E  E  E  E  E  E     E  E  E  E  E  E  E  E   
|--------------------------|--------------------------|
|-----2-----------------4--|-----------------4--------|
|--2-----2-----------5-----|--5-----------5-----5-----|
|-----------2-----6--------|-----6-----6-----------6--|
|--------------3-----------|--------3-----------------|
|--------------------------|--------------------------|
|--------------------------|--------------------------|


  W                   W                 
|-------------------|-------------------|
|--2----------------|-------------------|
|-------------------|-------------------|
|-------------------|-------------------|
|-------------------|-------------------|
|-------------------|-------------------|
|-------------------|-------------------|


  W                   W                  
|-------------------|-------------------||
|-------------------|-------------------||
|-------------------|-------------------||
|--L----------------|-------------------||
|-------------------|-------------------||
|-------------------|-------------------||
|-------------------|-------------------||



______________________________________________________________
____________________________________________________
____________________________________________________
______________Truest Shade of Crimson_______________
____________________________________________________
____________________________________________________



All guitars are tuned: B F# B E G# C#
  Q=130
 7/4             4/4
  Gtrs I, II
|---------------|---------------------------------|
|---------------|---------------------------------|
|---------------|---------------------------------|
|---------------|---------------------------------|
|---------------|-----0-0-7-7-0-0-8-8-0-0-7-7-0-0-|
|---------------|-0-0-----------------------------|


|---------------------------------|---------------------------------|
|---------------------------------|---------------------------------|
|---------------------------------|---------------------------------|
|---------------------------------|---------------------------------|
|-----0-0-7-7-0-0-4-4-0-0-5-5-0-0-|-----0-0-7-7-0-0-8-8-0-0-7-7-0-0-|
|-0-0-----------------------------|-0-0-----------------------------|


  Gtr I
|---------------------------------|---------------------------------|
|---------------------------------|---------------------------------|
|---------------------------------|---------------------------------|
|-5-5-3-3-2-2-0-0-3-3-2-2-0-0-----|---------------------------------|
|-----------------------------4-4-|-----0-0-4-4-----5-5-----4-4-----|
|---------------------------------|-0-0---------0-0-----0-0-----0-0-|
|
| Gtr II
|---------------------------------|---------------------------------|
|---------------------------------|---------------------------------|
|---------------------------------|---------------------------------|
|-----------------0-0-------------|---------------------------------|
|-7-7-5-5-4-4-1-1-----4-4-1-1-0-0-|-----0-0-4-4-----5-5-----4-4-----|
|---------------------------------|-0-0---------0-0-----0-0-----0-0-|


  Gtrs I, II
|---------------------------------|---------------------------------|
|---------------------------------|---------------------------------|
|---------------------------------|---------------------------------|
|---------------------------------|---------------------------------|
|-----0-0-4-4---------------------|-----0-0-4-4-----5-5-----4-4-----|
|-0-0---------0-0-7-7-0-0-8-8-0-0-|-0-0---------0-0-----0-0-----0-0-|


|---------------------------------|---------------------------------|
|---------------------------------|---------------------------------|
|---------------------------------|---------------------------------|
|---------------------------------|---------------------------------|
|-0-0-------------1-1-0-0---------|-----0-0-7-7-0-0-8-8-0-0-7-7-0-0-|
|-----3-3-2-2-0-0---------5-5-3-3-|-0-0-----------------------------|


|---------------------------------|---------------------------------|
|---------------------------------|---------------------------------|
|---------------------------------|---------------------------------|
|---------------------------------|---------------------------------|
|-----0-0-7-7-0-0-4-4-0-0-5-5-0-0-|-----0-0-7-7-0-0-8-8-0-0-7-7-0-0-|
|-0-0-----------------------------|-0-0-----------------------------|


  Gtr I
|---------------------------------|---------------------------------|
|---------------------------------|---------------------------------|
|---------------------------------|---------------------------------|
|-5-5-3-3-2-2-0-0-3-3-2-2-0-0-----|---------------------------------|
|-----------------------------4-4-|-----0-0-4-4-----5-5-----4-4-----|
|---------------------------------|-0-0---------0-0-----0-0-----0-0-|
|
| Gtr II
|---------------------------------|---------------------------------|
|---------------------------------|---------------------------------|
|---------------------------------|---------------------------------|
|---------------------------------|---------------------------------|
|-7-7-5-5-4-4-1-1-5-5-4-4-1-1-0-0-|-----0-0-4-4-----5-5-----4-4-----|
|---------------------------------|-0-0---------0-0-----0-0-----0-0-|


  Gtrs I, II
|---------------------------------|---------------------------------|
|---------------------------------|---------------------------------|
|---------------------------------|---------------------------------|
|---------------------------------|---------------------------------|
|-----0-0-4-4---------------------|-----0-0-4-4-----5-5-----4-4-----|
|-0-0---------0-0-7-7-0-0-8-8-0-0-|-0-0---------0-0-----0-0-----0-0-|


  Gtr I
|------------|-------------------------------------|
|------------|-------------------------------------|
|------------|-------------------------------------|
|------------|-------------------------------------|
|------------|-------------------------------------|
|-7----5--4--|-0-0-12-0-12-0-8-11-0-0-7-0-8-0-8-11-|
|
| Gtr II
|------------|-------------------------------------|
|------------|-------------------------------------|
|------------|-------------------------------------|
|------------|-------------------------------------|
|-5----------|-0------------------0---------0-0--0-|
|------8--7--|-0------------------0---------0-0--0-|


|-------------------------------------|
|-------------------------------------|
|-------------------------------------|
|-------------------------------------|
|-------------------------------------|
|-0-0-12-0-12-0-8-0-11-0-7-0-8-0-8-11-|
|
|-------------------------------------|
|-------------------------------------|
|-------------------------------------|
|-------------------------------------|
|-0-------------0-0--0-0-----0---0--0-|
|-0-------------0-0--0-0-----0---0--0-|


|---------------------------------------------|
|---------------------------------------------|
|---------------------------------------------|
|---------------------------------------------|
|---------------------------------------------|
|-0-0-12-12-14-14-15-15-14-14-11-11-12-12-7-7-|
|
|---------------------------------------------|
|---------------------------------------------|
|---------------------------------------------|
|---------------------------------------------|
|-8-------------------------------------------|
|-8-------------------------------------------|


|------------------------------------|-------------------------------------|
|------------------------------------|-------------------------------------|
|------------------------------------|-------------------------------------|
|--------------8-8-7-7---------------|-------------------------------------|
|------7-7-8-8---------7-7-8-8-10-10-|-------------------------------------|
|--8-8-------------------------------|-0-0-12-0-12-0-8-0-11-0-7-0-8-0-8-11-|
|
|------------------------------------|-------------------------------------|
|------------------------------------|-------------------------------------|
|------------------------------------|-------------------------------------|
|------------------------------------|-------------------------------------|
|-12---------------------------------|-------------------------------------|
|-12---------------------------------|-0-0-12-0-12-0-8-0-11-0-7-0-8-0-8-11-|


  Gtrs I, II
|-------------------------------------|---------------------------------|
|-------------------------------------|---------------------------------|
|-------------------------------------|---------------------------------|
|-------------------------------------|---------------------------------|
|-------------------------------------|-----5-5-7-7-8-8-7-7-4-4-5-5-----|
|-0-0-12-0-12-0-8-0-11-0-7-0-8-0-8-11-|-0-0-------------------------7-7-|


|-----------------------------------|-------------------------------------|
|-----------------------------------|-------------------------------------|
|-----------------------------------|-------------------------------------|
|-------------8-8-7-7---------------|-------------------------------------|
|-----7-7-8-8---------7-7-8-8-10-10-|-------------------------------------|
|-8-8-------------------------------|-0-0-12-0-12-0-8-0-11-0-7-0-8-0-8-11-|


|-------------------------------------|---------------------------------|
|-------------------------------------|---------------------------------|
|-------------------------------------|---------------------------------|
|-------------------------------------|---------------------------------|
|-------------------------------------|-----5-5-7-7-8-8-7-7-4-4-5-5-----|
|-0-0-12-0-12-0-8-0-11-0-7-0-8-0-8-11-|-0-0-------------------------7-7-|


|-----------------------------------|---------------------------------|
|-----------------------------------|---------------------------------|
|-----------------------------------|---------------------------------|
|-------------8-8-7-7---------------|---------------------------------|
|-----7-7-8-8---------7-7-8-8-10-10-|-5-5-5-5-----4-4-4-4-------------|
|-8-8-------------------------------|---------0-0---------0-0-0-0-0-0-|


  Gtr I
|-------------------------------------|---------------------------------|
|-------------------------------------|---------------------------------|
|-------------------------------------|---------------------------------|
|-------------------------------------|---------------------------------|
|-8-8-8-8-----7-7-7-7-8-8-10-10-12-12-|-5-5-5-5-----4-4-4-4-----1-1-1-1-|
|---------8-8-------------------------|---------0-0---------0-0---------|
|
| Gtr II
|-------------------------------------|---------------------------------|
|-------------------------------------|---------------------------------|
|-------------------------------------|---------------------------------|
|-------------------------------------|---------------------------------|
|-8-8-8-8-----7-7-7-7-4-4--5--5--7--7-|-5-5-5-5-----4-4-4-4-----1-1-1-1-|
|---------8-8-------------------------|---------0-0---------0-0---------|


|-----------------------|---------------------------------|
|-----------------------|---------------------------------|
|-----------------------|---------------------------------|
|-----------------------|---------------------------------|
|-----------------3--2--|-5-5-5-5-----4-4-4-4-------------|
|-0-0-7-7-7-7-0-0-3--2--|---------0-0---------0-0-0-0-0-0-|
|
|-----------------------|---------------------------------|
|-----------------------|---------------------------------|
|-----------------------|---------------------------------|
|-----------------------|---------------------------------|
|-----------------3--2--|-5-5-5-5-----4-4-4-4-------------|
|-0-0-7-7-7-7-0-0-3--2--|---------0-0---------0-0-0-0-0-0-|


|-------------------------------------|-----------------------------------|
|-------------------------------------|-----------------------------------|
|-------------------------------------|-----------------------------------|
|-------------------------------------|-----------------------------------|
|-8-8-8-8-----7-7-7-7-8-8-10-10-12-12-|-5-5-5-5-----4-4-4-4-----1-1-1-1---|
|---------8-8-------------------------|---------0-0---------0-0-----------|
|
|-------------------------------------|-----------------------------------|
|-------------------------------------|-----------------------------------|
|-------------------------------------|-----------------------------------|
|-------------------------------------|-----------------------------------|
|-8-8-8-8-----7-7-7-7-4-4--5--5--7--7-|-5-5-5-5-----4-4-4-4-----1-1-1-1---|
|---------8-8-------------------------|---------0-0---------0-0-----------|


|-------------------------|-------------------------------------|
|-------------------------|-------------------------------------|
|-------------------------|-------------------------------------|
|-------------------------|-------------------------------------|
|-----------------3--2-2--|-------------------------------------|
|-0-0-7-7-7-7-0-0-3--2-2--|-0-0-12-0-12-0-8-0-11-0-7-0-8-0-8-11-|
|
|-------------------------|-------------------------------------|
|-------------------------|-------------------------------------|
|-------------------------|-------------------------------------|
|-------------------------|-------------------------------------|
|-----------------3--2-2--|-0-0--0-0--0-0-0-0--0-------0-0-0----|
|-0-0-7-7-7-7-0-0-3--2-2--|-0-0--0-0--0-0-0-0--0-------0-0-0----|


|-------------------------------------|---------------------------------|
|-------------------------------------|---------------------------------|
|-------------------------------------|---------------------------------|
|-------------------------------------|---------------------------------|
|-------------------------------------|-----5-5-7-7-8-8-7-7-4-4-5-5-----|
|-0-0-12-0-12-0-8-0-11-0-7-0-8-0-8-11-|-0-0-------------------------7-7-|
|
|-------------------------------------|---------------------------------|
|-------------------------------------|---------------------------------|
|-------------------------------------|---------------------------------|
|-------------------------------------|---------------------------------|
|-0-0--0-0--0-0-0-0--0-------0-0-0----|-----5-5-7-7-8-8-7-7-4-4-5-5-----|
|-0-0--0-0--0-0-0-0--0-------0-0-0----|-0-0-------------------------7-7-|


|-----------------------------------|-------------------------------------|
|-----------------------------------|-------------------------------------|
|-----------------------------------|-------------------------------------|
|-------------8-8-7-7---------------|-------------------------------------|
|-----7-7-8-8---------7-7-8-8-10-10-|-------------------------------------|
|-8-8-------------------------------|-0-0-12-0-12-0-8-0-11-0-7-0-8-0-8-11-|
|
|-----------------------------------|-------------------------------------|
|-----------------------------------|-------------------------------------|
|-----------------------------------|-------------------------------------|
|-------------8-8-7-7---------------|-------------------------------------|
|-----7-7-8-8---------7-7-8-8-10-10-|-0-0--0-0--0-0-0-0--0-------0-0-0----|
|-8-8-------------------------------|-0-0--0-0--0-0-0-0--0-------0-0-0----|


|-------------------------------------|
|-------------------------------------|
|-------------------------------------|
|-------------------------------------|
|-------------------------------------|
|-0-0-12-0-12-0-8-0-11-0-7-0-8-0-8-11-|
|
|-------------------------------------|
|-------------------------------------|
|-------------------------------------|
|-------------------------------------|
|-0-0--0-0--0-0-0-0--0-------0-0-0----|
|-0-0--0-0--0-0-0-0--0-------0-0-0----|


|---------------------------------------------|
|---------------------------------------------|
|---------------------------------------------|
|---------------------------------------------|
|-----------------------------------------0-0-|
|-0-0-12-12-14-14-15-15-14-14-11-11-12-12-----|
|
|---------------------------------------------|
|---------------------------------------------|
|---------------------------------------------|
|---------------------------------------------|
|-----------------------------------------0-0-|
|-0-0-12-12-14-14-15-15-14-14-11-11-12-12-----|


|-----------------------------------|
|-----------------------------------|
|-----------------------------------|
|-------------8-8-7-7---------------|
|-----7-7-8-8---------7-7-8-8-10-10-|
|-8-8-------------------------------|
|
|-----------------------------------|
|-----------------------------------|
|-----------------------------------|
|-------------8-8-7-7---------------|
|-----7-7-8-8---------7-7-8-8-10-10-|
|-8-8-------------------------------|


|-----------------------------|-----------------------------|
|-----------------------------|-----------------------------|
|-----------------------------|-----------------------------|
|-----------------------------|-----------------------------|
|-0-0-0--------0-0-0----------|-0-0-0--------0-0-0----------|
|-0-0-0--------0-0-0----------|-0-0-0--------0-0-0----------|
|
|-----------------------------|-----------------------------|
|-----------------------------|-----------------------------|
|-----------------------------|-----------------------------|
|-----------------------------|-----------------------------|
|--------0-0-0--------0-0-0---|--------0-0-0--------0-0-0---|
|--------0-0-0--------0-0-0---|--------0-0-0--------0-0-0---|


|----------------------------------------|-------------------------------------------|
|----------------------------------------|-------------------------------------------|
|----------------------------------------|-------------------------------------------|
|----------------------------------------|-------------------------------------------|
|-0-0-0-----------0-0-0------------------|---0--0-0-----------0-0-0------------------|
|-0-0-0-----------0-0-0------------------|---0--0-0-----------0-0-0------------------|
|
|----------------------------------------|-------------------------------------------|
|----------------------------------------|-------------------------------------------|
|----------------------------------------|-------------------------------------------|
|----------------------------------------|-------------------------------------------|
|----------0-0-0-----------0-0-0---------|--------------0-0-0-----------0-0----0-----|
|----------0-0-0-----------0-0-0---------|--------------0-0-0-----------0-0----0-----|
|
| Gtr III
|-5-----7--9-----10------9--------(9)-13-|-(13)-----12-12-----------12-10---12-------|
|-7-----8-10-----11-----10-------(10)-15-|-(15)-----14-14-----------14-12---14---14--|
|----------------------------------------|---------------------------------------14--|
|----------------------------------------|-------------------------------------------|
|----------------------------------------|-------------------------------------------|
|----------------------------------------|-------------------------------------------|


|------------------------------------------------|
|------------------------------------------------|
|------------------------------------------------|
|------------------------------------------------|
|--0-0----0-----------0-0----0-------------------|
|--0-0----0-----------0-0----0-------------------|
|
|------------------------------------------------|
|------------------------------------------------|
|------------------------------------------------|
|------------------------------------------------|
|--------------0-0-0--------------0-0-0----------|
|--------------0-0-0--------------0-0-0----------|
|
|------------------------------------------------|
|-16---17---15-------14---15---14----------------|
|-17---18---16-------15---16---15-------14-14-14-|
|---------------------------------------16-16-16-|
|------------------------------------------------|
|------------------------------------------------|


|--------------------------------|
|--------------------------------|
|--------------------------------|
|--------------------------------|
|-0-0--------------0-0-----------|
|-0-0--------------0-0-----------|
|
|--------------------------------|
|--------------------------------|
|--------------------------------|
|--------------------------------|
|------------0-0---------0--0----|
|------------0-0---------0--0----|
|
|--------------------------------|
|-----14-14-14----14----14-16-14-|
|-----15-15-15----14----16-17-16-|
|--------------------------------|
|--------------------------------|
|--------------------------------|


|-------------------------------------------------|
|-------------------------------------------------|
|-------------------------------------------------|
|-------------------------------------------------|
|--0-----------------------0----------------------|
|--0-----------------------0----------------------|
|
|-------------------------------------------------|
|-------------------------------------------------|
|-------------------------------------------------|
|-------------------------------------------------|
|--------------0-----------------------0----------|
|--------------0-----------------------0----------|
|
|-------10-------10-------10-------10-------10----|
|-10-10----10-10----10-10----10-10----10-10----10-|
|-------------------------------------------------|
|-------------------------------------------------|
|-------------------------------------------------|
|-------------------------------------------------|


|-------------------------------------------------------------|
|-------------------------------------------------------------|
|-------------------------------------------------------------|
|-------------------------------------------------------------|
|--0-0----0----------------0-0----0---------------------------|
|--0-0----0----------------0-0----0---------------------------|
|
|-------------------------------------------------------------|
|-------------------------------------------------------------|
|-------------------------------------------------------------|
|-------------------------------------------------------------|
|-----------------0-0---0-----------------0-0---0-------------|
|-----------------0-0---0-----------------0-0---0-------------|
|
|-----------9---------9-------------9---------9---10-12-10----|
|-11---11-----11-11-------11---11-----11-11----------------11-|
|-------------------------------------------------------------|
|-------------------------------------------------------------|
|-------------------------------------------------------------|
|-------------------------------------------------------------|


|------------------------------------------------------------------|
|------------------------------------------------------------------|
|------------------------------------------------------------------|
|------------------------------------------------------------------|
|--0-0----0------------------0-0----0------------------------------|
|--0-0----0------------------0-0----0------------------------------|
|
|------------------------------------------------------------------|
|------------------------------------------------------------------|
|------------------------------------------------------------------|
|------------------------------------------------------------------|
|------------------0-0----0------------------0-0----0--------------|
|------------------0-0----0------------------0-0----0--------------|
|
|-13---12---10-10-13---12---10---10---13-12-10---10---13-12-10-10--|
|------------------------------------------------------------------|
|-10----9----7--7-10----9----7----7---10--9--7----7---10--9--7--7--|
|------------------------------------------------------------------|
|------------------------------------------------------------------|
|------------------------------------------------------------------|


|-------------------------------------------------|
|-------------------------------------------------|
|-------------------------------------------------|
|-------------------------------------------------|
|--0--0--0-----------------0--0--0----------------|
|--0--0--0-----------------0--0--0----------------|
|
|-------------------------------------------------|
|-------------------------------------------------|
|-------------------------------------------------|
|-------------------------------------------------|
|--------------0--0--0-----------------0--0--0----|
|--------------0--0--0-----------------0--0--0----|
|
|-12-13-15-13-12-13-15-13-12-13-15-13-12-13-15-13-|
|-------------------------------------------------|
|--9-10-12-10--9-10-12-10--9-10-12-10--9-10-12-10-|
|-------------------------------------------------|
|-------------------------------------------------|
|-------------------------------------------------|


|----------------------------------|
|----------------------------------|
|----------------------------------|
|----------------------------------|
|-0--0-0-----------0-0-0-----------|
|-0--0-0-----------0-0-0-----------|
|
|----------------------------------|
|----------------------------------|
|----------------------------------|
|----------------------------------|
|----------0-0-0-----------0-0-0---|
|----------0-0-0-----------0-0-0---|
|
|----------------------------------|
|------8-6-5-6-8-6-5-6-8-6-5-6-8-6-|
|-9-10-----------------------------|
|----------------------------------|
|----------------------------------|
|----------------------------------|


  Gtrs I, II
|---------------------------------|---------------------------------|
|---------------------------------|---------------------------------|
|---------------------------------|---------------------------------|
|---------------------------------|---------------------3-3-2-2-0-0-|
|-0-0-1-1-4-4-0-0-4-4-5-5-4-4-1-1-|-0-0-4-4-5-5-1-1-5-5-------------|
|---------------------------------|---------------------------------|


  Gtr I
|---------------------------------|---------------------------------|
|---------------------------------|---------------------------------|
|---------------------------------|---------------------------------|
|---------------------------------|---------------------------------|
|-0-0-1-1-4-4-0-0-4-4-5-5-4-4-1-1-|-1-1-1-1-1-1-4-4-5-5-5-5-4-4-4-4-|
|---------------------------------|---------------------------------|
|
| Gtr II
|---------------------------------|---------------------------------|
|---------------------------------|---------------------------------|
|---------------------------------|---------------------------------|
|---------------------------------|-0-0-0-0-0-0-2-2-3-3-3-3-2-2-2-2-|
|-0-0-1-1-4-4-----4-4-5-5-4-4-1-1-|---------------------------------|
|-------------7-7-----------------|---------------------------------|


|---------------------------------|---------------------------------|
|---------------------------------|---------------------------------|
|---------------------------------|---------------------------------|
|---------------------------------|---------------------3-3-2-2-0-0-|
|-0-0-1-1-4-4-0-0-4-4-5-5-4-4-1-1-|-0-0-4-4-5-5-1-1-5-5-------------|
|---------------------------------|---------------------------------|
|
|---------------------------------|---------------------------------|
|---------------------------------|---------------------------------|
|---------------------------------|---------------------------------|
|---------------------------------|---------------------3-3-2-2-0-0-|
|-0-0-1-1-4-4-0-0-4-4-5-5-4-4-1-1-|-0-0-4-4-5-5-1-1-5-5-------------|
|---------------------------------|---------------------------------|


|---------------------------------|---------------------------------|
|---------------------------------|---------------------------------|
|---------------------------------|---------------------------------|
|---------------------------------|---------------------------------|
|-0-0-1-1-4-4-0-0-4-4-5-5-4-4-1-1-|-1-1-1-1-1-1-4-4-5-5-5-5-1-1-4-4-|
|---------------------------------|---------------------------------|
|
|---------------------------------|---------------------------------|
|---------------------------------|---------------------------------|
|---------------------------------|---------------------------------|
|---------------------------------|---------------------------------|
|-0-0-1-1-4-4-0-0-4-4-5-5-4-4-1-1-|-5-5-5-5-5-5-7-7-8-8-8-8-5-5-7-7-|
|---------------------------------|---------------------------------|


|-----------------|---------------------|
|-----------------|---------------------|
|-----------------|---------------------|
|-----------------|---------------------|
|-0-3-0-3-3-2-0-3-|-0-3-3-2-0-0-0-0-0-0-|
|-0-3-0-3-3-2-0-3-|-0-3-3-2-0-0-0-0-0-0-|
|
|-----------------|---------------------|
|-----------------|---------------------|
|-----------------|---------------------|
|-----------------|---------------------|
|-----------------|---------------------|
|-----------------|---------0-0-0-0-0-0-|


|------------------|-----------------------|
|------------------|-----------------------|
|-------------6--7-|--7--9--9-10-10--9--9--|
|------------------|-----------------------|
|-0-3-0-3-3-2-4--5-|--5--7--7--8--8--7--7--|
|-0-3-0-3-3-2------|-----------------------|
|
|------------------|-----------------------|
|------------------|-----------------------|
|-------------9-10-|-10-12-12-13-13-12-12--|
|------------------|-----------------------|
|-0-3-0-3-3-2-7--8-|--8-10-10-11-11-10-10--|
|-0-3-0-3-3-2------|-----------------------|


|-----------------|---------------------|
|-----------------|---------------------|
|-----------------|---------------------|
|-----------------|---------------------|
|-0-3-0-3-3-2-0-3-|-0-3-3-2-0-0-0-0-0-0-|
|-0-3-0-3-3-2-0-3-|-0-3-3-2-0-0-0-0-0-0-|
|
|-----------------|---------------------|
|-----------------|---------------------|
|-----------------|---------------------|
|-----------------|---------------------|
|-0-3-0-3-3-2-0-3-|-0-3-3-2-0-0-0-0-0-0-|
|-0-3-0-3-3-2-0-3-|-0-3-3-2-0-0-0-0-0-0-|


|------------------|---------------------|
|------------------|---------------------|
|-------------9-10-|-10-11-11-10-10-9-9--|
|------------------|---------------------|
|-0-3-0-3-3-2-7--8-|--8--9--9--8--8-7-7--|
|-0-3-0-3-3-2------|---------------------|
|
|------------------|---------------------|
|------------------|---------------------|
|-------------6--7-|--7--9--9-10-10-9-9--|
|------------------|---------------------|
|-0-3-0-3-3-2-4--5-|--5--7--7--8--8-7-7--|
|-0-3-0-3-3-2------|---------------------|


|-----------------|---------------------|
|-----------------|---------------------|
|-----------------|---------------------|
|-----------------|---------------------|
|-0-3-0-3-3-2-0-3-|-0-3-3-2-0-0-0-0-0-0-|
|-0-3-0-3-3-2-0-3-|-0-3-3-2-0-0-0-0-0-0-|
|
|-----------------|---------------------|
|-----------------|---------------------|
|-----------------|---------------------|
|-----------------|---------------------|
|-0-3-0-3-3-2-0-3-|-0-3-3-2-0-0-0-0-0-0-|
|-0-3-0-3-3-2-0-3-|-0-3-3-2-0-0-0-0-0-0-|


|------------------|-----------------------|
|------------------|-----------------------|
|-------------6--7-|--7--9--9-10-10--9--9--|
|------------------|-----------------------|
|-0-3-0-3-3-2-4--5-|--5--7--7--8--8--7--7--|
|-0-3-0-3-3-2------|-----------------------|
|
|------------------|-----------------------|
|------------------|-----------------------|
|-------------9-10-|-10-12-12-13-13-12-12--|
|------------------|-----------------------|
|-0-3-0-3-3-2-7--8-|--8-10-10-11-11-10-10--|
|-0-3-0-3-3-2------|-----------------------|


|-----------------|---------------------|
|-----------------|---------------------|
|-----------------|---------------------|
|-----------------|---------------------|
|-0-3-0-3-3-2-0-3-|-0-3-3-2-0-0-0-0-0-0-|
|-0-3-0-3-3-2-0-3-|-0-3-3-2-0-0-0-0-0-0-|
|
|-----------------|---------------------|
|-----------------|---------------------|
|-----------------|---------------------|
|-----------------|---------------------|
|-0-3-0-3-3-2-0-3-|-0-3-3-2-0-0-0-0-0-0-|
|-0-3-0-3-3-2-0-3-|-0-3-3-2-0-0-0-0-0-0-|


|------------------|---------------------|
|------------------|---------------------|
|-------------9-10-|-10-11-11-10-10-9-9--|
|------------------|---------------------|
|-0-3-0-3-3-2-7--8-|--8--9--9--8--8-7-7--|
|-0-3-0-3-3-2------|---------------------|
|
|------------------|---------------------|
|------------------|---------------------|
|-------------6--7-|--7--9--9--7--7-6-6--|
|------------------|---------------------|
|-0-3-0-3-3-2-4--5-|--5--7--7--5--5-4-4--|
|-0-3-0-3-3-2------|---------------------|


               Q=145
  Gtrs I, II
|------------|---------------------------------|
|------------|---------------------------------|
|------------|---------------------------------|
|-2----3--5--|---------------------------------|
|-2----3--5--|---------------------------------|
|-2----3--5--|-0-0-0-0-0-0-0-0-0-0-0-0-0-0-0-0-|


  Gtr I
|---------------------------------|---------------------------------|
|---------------------------------|---------------------------------|
|---------------------------------|---------------------------------|
|---------------------------------|---------------------------------|
|---------------------------------|---------------------------------|
|-0-7-7-7-7-7-7-7-2-2-2-2-2-2-2-2-|-3-3-3-3-3-3-3-3-3-3-3-3-3-3-3-3-|
|
| Gtr II
|---------------------------------|---------------------------------|
|---------------------------------|---------------------------------|
|---------------------------------|---------------------------------|
|---------------------------------|---------------------------------|
|---------------------------------|---------------------------------|
|-7-7-7-7-7-7-7-7-2-2-2-2-2-2-2-2-|-3-3-3-3-3-3-3-3-3-3-3-3-3-3-3-3-|


|---------------------------------|---------------------------------|
|---------------------------------|---------------------------------|
|---------------------------------|---------------------------------|
|---------------------------------|---------------------------------|
|-----------------1-1-1-1-0-0-0-0-|---------------------------------|
|-5-5-5-5-5-5-5-5-----------------|-0-0-0-0-0-0-0-0-0-0-0-0-0-0-0-0-|
|
|---------------------------------|---------------------------------|
|---------------------------------|---------------------------------|
|---------------------------------|---------------------------------|
|---------------------------------|---------------------------------|
|---------------------------------|---------------------------------|
|-5-5-5-5-5-5-5-5-8-8-8-8-7-7-7-7-|-0-0-0-0-0-0-0-0-0-0-0-0-0-0-0-0-|


|---------------------------------|---------------------------------|
|---------------------------------|---------------------------------|
|---------------------------------|---------------------------------|
|---------------------------------|---------------------------------|
|-0-0-0-0-0-0-0-0-----------------|---------------------------------|
|-----------------2-2-2-2-2-2-2-2-|-3-3-3-3-3-3-3-3-3-3-3-3-3-3-3-3-|
|
|---------------------------------|---------------------------------|
|---------------------------------|---------------------------------|
|---------------------------------|---------------------------------|
|---------------------------------|---------------------------------|
|---------------------------------|---------------------------------|
|-7-7-7-7-7-7-7-7-2-2-2-2-2-2-2-2-|-3-3-3-3-3-3-3-3-3-3-3-3-3-3-3-3-|


|-----------------|
|-----------------|
|-----------------|
|-8--7------------|
|-8--7--3-3--3-3--|
|-8--7--3-3--3-3--|
|
|-----------------|
|-----------------|
|-----------------|
|-3--2------------|
|-1--0--3-3--3-3--|
|-------3-3--3-3--|
|
| Gtr III
|-----------------|
|-----------------|
|-----------------|
|-----------------|
|-----------------|
|-----------------|


|------------------------------------------------------------------|
|------------------------------------------------------------------|
|------------------------------------------------------------------|
|------------------------------------------------------------------|
|------------------------------------------------------------------|
|-0---0---0---0---0---0---0---0---0---0---0---0---0---0---0---0----|
|
|------------------------------------------------------------------|
|------------------------------------------------------------------|
|------------------------------------------------------------------|
|------------------------------------------------------------------|
|------------------------------------------------------------------|
|-0---0---0---0---0---0---0---0---0---0---0---0---0---0---0---0----|
|
|------------------------------------------------------------------|
|------------------------------------------------------------------|
|------------------------------------------------------------------|
|---------8-8---8-5-5---5-7-7---7-7-7---7-8-8---8-5-5---5-7-7---7--|
|-5-5---5----------------------------------------------------------|
|------------------------------------------------------------------|


  Gtrs I, II
|-----------------------------------------------------------------------|
|-----------------------------------------------------------------------|
|-----------------------------------------------------------------------|
|-----------------------------------------------------------------------|
|-0---0----0----0----0---0---0---0--------------------------------------|
|------------------------------------2---2----2----2----2---2---2---2---|
|
| Gtr III
|-----------------------------------------------------------------------|
|-----------------------------------------------------------------------|
|---------10-10---10-7-7---7-9-9---9-9-9---9-10-10---10-7-7---7-9-9---9-|
|-7-7---7---------------------------------------------------------------|
|-----------------------------------------------------------------------|
|-----------------------------------------------------------------------|


|--------------------------------------------------------------------------------|
|--------------------------------------------------------------------------------|
|--------------------------------------------------------------------------------|
|--------------------------------------------------------------------------------|
|--------------------------------------------------------------------------------|
|-3---3----3----3----3---3----3----3-----3----3-----3----3----3---3----3----3----|
|
|--------------------------------------------------------------------------------|
|---------11-11---11-8-8---8-10-10---10-10-10---10-11-11---11-8-8---8-10-10---10-|
|-7-7---7------------------------------------------------------------------------|
|--------------------------------------------------------------------------------|
|--------------------------------------------------------------------------------|
|--------------------------------------------------------------------------------|


  Gtr I
|----------------------------------------|
|----------------------------------------|
|----------------------------------------|
|----------------------------------------|
|---------------------1--1-1--1-0--0-0-0-|
|--5--5-5--5-5--5-5-5--------------------|
|
| Gtr II
|----------------------------------------|
|----------------------------------------|
|----------------------------------------|
|----------------------------------------|
|----------------------------------------|
|--5--5-5--5-5--5-5-5-8--8-8--8-7--7-7-7-|
|
| Gtr III
|----------------------------------------|
|-11-10-8-10-8-------------8-------------|
|--------------10-9-7-9-10---10-9-10-9---|
|----------------------------------------|
|----------------------------------------|
|----------------------------------------|


|--------------------------------------------------|
|--------------------------------------------------|
|--------------------------------------------------|
|--------------------------------------------------|
|--------------------------------------------------|
|--0---0--0--0--0--0--0--0-0--0--0--0--0--0--0-0---|
|
|--------------------------------------------------|
|--------------------------------------------------|
|--------------------------------------------------|
|--------------------------------------------------|
|--------------------------------------------------|
|--0---0--0--0--0--0--0--0-0--0--0--0--0--0--0-0---|
|
|--------------------------------------------------|
|-----13-11-10-11-10---------13-11-10-11-10--------|
|-(9)----------------12-10-9----------------12-9---|
|--------------------------------------------------|
|--------------------------------------------------|
|--------------------------------------------------|


|-------------------------------------------------|
|-------------------------------------------------|
|-------------------------------------------------|
|-------------------------------------------------|
|--0--0--0--0--0--0--0--0-------------------------|
|--------------------------2--2--2--2--2--2--2--2-|
|
|-------------------------------------------------|
|-------------------------------------------------|
|-------------------------------------------------|
|-------------------------------------------------|
|-------------------------------------------------|
|--7--7--7--7--7--7--7--7--2--2--2--2--2--2--2--2-|
|
|-------------------------------------------------|
|----15-13-11-13-11----------15-13-11-13-11-------|
|-10----------------14-12-10----------------14-12-|
|-------------------------------------------------|
|-------------------------------------------------|
|-------------------------------------------------|


|----------------------------------------------|
|----------------------------------------------|
|----------------------------------------------|
|----------------------------------------------|
|----------------------------------------------|
|-3--3--3--3--3--3--3--3-3--3--3--3--3--3--3-3-|
|
|----------------------------------------------|
|----------------------------------------------|
|----------------------------------------------|
|----------------------------------------------|
|----------------------------------------------|
|-3--3--3--3--3--3--3--3-3--3--3--3--3--3--3-3-|
|
|----------------------------------------------|
|---13-11-10-11-10---------13-11-10-11-10------|
|-9----------------12-10-9----------------12-9-|
|----------------------------------------------|
|----------------------------------------------|
|----------------------------------------------|


|-----------------------------------------|
|-----------------------------------------|
|-----------------------------------------|
|-----------------------------------------|
|----------------------1--1--1-1--0-0-0-0-|
|--5-5--5-5--5-5--5-5---------------------|
|
|-----------------------------------------|
|-----------------------------------------|
|-----------------------------------------|
|-----------------------------------------|
|-----------------------------------------|
|--5-5--5-5--5-5--5-5--8--8--8-8--7-7-7-7-|
|
|-----------------------------------------|
|-11--------------------------------------|
|-----------12---14---12-14-12---10---9---|
|------12---------------------------------|
|-----------------------------------------|
|-----------------------------------------|


|--------------------------------------------------|
|--------------------------------------------------|
|--------------------------------------------------|
|--------------------------------------------------|
|--------------------------------------------------|
|--0-0----0----0--0-0----0----0--0-0--0-0--0-0-0-0-|
|
|--------------------------------------------------|
|--------------------------------------------------|
|--------------------------------------------------|
|--------------------------------------------------|
|--------------------------------------------------|
|--0-0----0----0--0-0----0----0--0-0--0-0--0-0-0-0-|
|
|--------------------------------------------------|
|----------------15---17---18---17-----------------|
|-----------14-----------------------15---14-------|
|-12---15------------------------------------------|
|--------------------------------------------------|
|--------------------------------------------------|


|-------------------------------------------------------------|
|-------------------------------------------------------------|
|-------------------------------------------------------------|
|-------------------------------------------------------------|
|--0-0----0----0--0-0----0----0-------------------------------|
|--------------------------------2-2----2----2--2-2----2----2-|
|
|-------------------------------------------------------------|
|-------------------------------------------------------------|
|-------------------------------------------------------------|
|-------------------------------------------------------------|
|-------------------------------------------------------------|
|--7-7----7----7--7-7----7----7--2-2----2----2--2-2----2----2-|
|
|-------------------------------------------------------------|
|-17-------------18-------------17-------------14---15---17---|
|------15---14--------15---14--------15---14------------------|
|-------------------------------------------------------------|
|-------------------------------------------------------------|
|-------------------------------------------------------------|


|---------------------------------|
|---------------------------------|
|---------------------------------|
|---------------------------------|
|---------------------------------|
|-3-3-3-3-3-3-3-3-3-3-3-3-3-3-3-3-|
|
|---------------------------------|
|---------------------------------|
|---------------------------------|
|---------------------------------|
|---------------------------------|
|-3-3-3-3-3-3-3-3-3-3-3-3-3-3-3-3-|
|
|---------------------------------|
|---------------------------------|
|---------------------------------|
|---------------------------------|
|---------------------------------|
|---------------------------------|


|---------------------------------------|-----------------------------------|
|---------------------------------------|-----------------------------------|
|---------------------------------------|-----------------------------------|
|---------------------------------------|-----------------------------------|
|-------------------1-1-1--1--0--0-0--0-|-----------------------------------|
|-5-5-5-5-5-5-5--5----------------------|--0-0-0-0-0-0-0-0-0-0-0-0--0-0-0-0-|
|
|---------------------------------------|-----------------------------------|
|---------------------------------------|-----------------------------------|
|---------------------------------------|-----------------------------------|
|---------------------------------------|-----------------------------------|
|---------------------------------------|-----------------------------------|
|-5-5-5-5-5-5-5--5--8-8-8--8--7--7-7--7-|--0-0-0-0-0-0-0-0-0-0-0-0--0-0-0-0-|
|
| Gtr IV
|---------------------9---10-12-13---15-|-----------------------------------|
|-------5-6-8---10-11-------------------|-----------------------------------|
|-6-7-----------------------------------|-----------------------------------|
|---------------------------------------|-12--------------------------------|
|---------------------------------------|--------------------------12-------|
|---------------------------------------|-----------------------------------|


|------------------------------------|----------------------------------|
|------------------------------------|----------------------------------|
|------------------------------------|----------------------------------|
|------------------------------------|----------------------------------|
|--0-0-0-0-0-0-0-0-------------------|----------------------------------|
|-------------------2-2-2-2-2-2--2-2-|--3-3-3-3-3-3-3-3-3-3-3-3-3-3-3-3-|
|
|------------------------------------|----------------------------------|
|------------------------------------|----------------------------------|
|------------------------------------|----------------------------------|
|------------------------------------|----------------------------------|
|------------------------------------|----------------------------------|
|--7-7-7-7-7-7-7-7--2-2-2-2-2-2--2-2-|--3-3-3-3-3-3-3-3-3-3-3-3-3-3-3-3-|
|
|------------------------------------|----------------------------------|
|------------------------------------|----------------------------------|
|------------------------------------|----------------------------------|
|-14---------------12-----------14---|-15-------------------------------|
|------------------------------------|----------------------------------|
|------------------------------------|----------------------------------|


|------------------|-------------------------|---------------------------|
|------------------|-------------------------|---------------------------|
|------------------|-------------------------|---------------------------|
|------2-----------|-------------------------|-------------1-0---0-------|
|------0--3-3-3----|-2-2-2-----2-2-2-2-----2-|-2-2-2-----2-----2---3-0---|
|--3------3-3-3----|-2-2-2-3-2-2-2-2-2-3-2-2-|-2-2-2-3-2-2---------------|
|
|------------------|-------------------------|---------------------------|
|------------------|-------------------------|---------------------------|
|------------------|-------------------------|---------------------------|
|--3---2-----------|-------------------------|---------------------------|
|--1---0--3-3-3-3--|-2-2-2-----2-2-2-2-----2-|-2-2-2-----2-0-------------|
|---------3-3-3-3--|-2-2-2-3-2-2-2-2-2-3-2-2-|-2-2-2-3-2-2---6-3-6-3-2---|
|
|------------------|-------------------------|---------------------------|
|------------------|-------------------------|---------------------------|
|------------------|-------------------------|---------------------------|
|-15--14-----------|-------------------------|---------------------------|
|------------------|-------------------------|---------------------------|
|------------------|-------------------------|---------------------------|


|-------------------------|----------------------------|
|-------------------------|----------------------------|
|-------------------------|----------------------------|
|-------------------------|----------------------------|
|-2-2-2-----2-2-2-2-----2-|-6-5-2-5-3-0-6-5-2-8-5-2----|
|-2-2-2-3-2-2-2-2-2-3-2-2-|----------------------------|
|
|-------------------------|----------------------------|
|-------------------------|----------------------------|
|-------------------------|----------------------------|
|-------------------------|----------------------------|
|-2-2-2-----2-2-2-2-----2-|----------------------------|
|-2-2-2-3-2-2-2-2-2-3-2-2-|-7-6-3-9-6-2-7-6-3-9-6-3----|


||--------------------------|
||o-------------------------|
||--------------------------|
||--------------------------|
||o-2-2-2-3-2-2-2-2-2-3-2-2-|
||--2-2-2-3-2-2-2-2-2-3-2-2-|
|
||--------------------------|
||o-------------------------|
||--------------------------|
||--------------------------|
||o-2-2-2-3-2-2-2-2-2-3-2-2-|
||--2-2-2-3-2-2-2-2-2-3-2-2-|


|-------------------------|---------------------------|
|-------------------------|---------------------------|
|-------------------------|---------------------------|
|-------------------------|---------------------------|
|-2-2-2-----2-6-5-2-5-3-0-|-2-2-2-3-2-2-2-2-2-3-2-2---|
|-2-2-2-3-2-2-------------|-2-2-2-3-2-2-2-2-2-3-2-2---|
|
|-------------------------|---------------------------|
|-------------------------|---------------------------|
|-------------------------|---------------------------|
|-------------------------|---------------------------|
|-2-2-2-----2-------------|-2-2-2-3-2-2-2-2-2-3-2-2---|
|-2-2-2-3-2-2-7-6-3-6-3-2-|-2-2-2-3-2-2-2-2-2-3-2-2---|


                           3x
|--------------------------||
|-------------------------o||
|--------------------------||
|--------------------------||
|-6-5-2-5-3-0-6-5-2-8-5-2-o||
|--------------------------||
|
|                          3x
|--------------------------||
|-------------------------o||
|--------------------------||
|--------------------------||
|-------------------------o||
|-7-6-3-9-6-2-7-6-3-9-6-3--||


|--------------------------|-------------------------|
|--------------------------|-------------------------|
|--------------------------|-------------------------|
|--------------------------|-------------------------|
|--------2-2-2-3-3-3-0-0-0-|-5-5-5-3-3-3-2-3-5--7----|
|--2-2-2-------------------|-------------------------|
|
|--------------------------|-------------------------|
|--------------------------|-------------------------|
|--------------------------|-------------------------|
|--------------------------|-------------------------|
|--------2-2-2-3-3-3-0-0-0-|-5-5-5-3-3-3-------------|
|--2-2-2-------------------|-------------6-7-9-10----|


|-------------------------|------------------------|
|-------------------------|------------------------|
|-------------------------|------------------------|
|-------------------------|------------------------|
|-------2-2-2-3-3-3-0-0-0-|-3-2-0------------------|
|-2-2-2-------------------|-------6-7-9-12-10-6-3--|
|
|-------------------------|------------------------|
|-------------------------|------------------------|
|-------------------------|------------------------|
|-------------------------|------------------------|
|-------2-2-2-3-3-3-0-0-0-|-7-5-3-2-3-5--7--5-3-0--|
|-2-2-2-------------------|------------------------|


||--------------|---------------|
||o-------------|---------------|
||--------------|---------------|
||--------------|----2--0-------|
||o-0-----0--2--|-3--------2----|
||-----2--------|---------------|
|
||--------------|---------------|
||o-------------|---------------|
||--------------|---------------|
||--------------|---------------|
||o-0--------2--|-3--------2----|
||--------------|---------------|


                                    Q=164
                             4x
|--------------|-------------||||-----------------------------|
|--------------|------------o||||o----------------------------|
|--------------|-------------||||-----------------------------|
|--------------|-------------||||-----------------------------|
|--3-----2--3--|-5--3--2----o||||o-------------0-0-0-2-2-2----|
|-----3--------|----------5--||||--7-7-7-2-2-2----------------|
|
|                            4x
|--------------|-------------||||-----------------------------|
|--------------|------------o||||o----------------------------|
|--------------|-------------||||-----------------------------|
|--------------|-------------||||-----------------------------|
|-----------3--|-5----------o||||o----------------------------|
|-10--3--------|----3-----5--||||--7-7-7-7-7-7-7-7-7-9-9-9----|


|----------------------------------|-------------------------------|
|----------------------------------|-------------------------------|
|----------------------------------|-------------------------------|
|-----------2--2--2--0--0--0-------|-------------------------------|
|--3--3--3-------------------2-2-2-|--3--3--3-------2-2-2-3-3-3----|
|----------------------------------|----------3-3-3----------------|
|
|----------------------------------|-------------------------------|
|----------------------------------|-------------------------------|
|----------------------------------|-------------------------------|
|----------------------------------|-------------------------------|
|----------------------------------|----------------------3-3-3----|
|-10-10-10-10-10-10-10-10-10-9-9-9-|-10-10-10-3-3-3-3-3-3----------|


                              Q=114
|--------------------------||-||------------|--------------|
|-------------------------o||-||o-----------|--------------|
|--------------------------||-||------------|--------------|
|--------------------------||-||--7---3--0--|-2----3--5----|
|-5-5-5-3-3-3-2-2-2-------o||-||o-7---3--0--|-2----3--5----|
|-------------------5-5-5--||-||--7---3--0--|-2----3--5----|
|
|--------------------------||-||------------|--------------|
|-------------------------o||-||o-----------|--------------|
|--------------------------||-||------------|--------------|
|--------------------------||-||--7---3--0--|-2----3--5----|
|-5-5-5-------------------o||-||o-7---3--0--|-2----3--5----|
|-------3-3-3-3-3-3-5-5-5--||-||--7---3--0--|-2----3--5----|


                                  Q=130
|------------|-----------------||-------------------|-------------------|
|------------|----------------o||-------------------|-------------------|
|------------|-----------------||-7-7-7-7-7-7-10-10-|--9--9-9-9-9-9-2-2-|
|-7----3--0--|-2----3-3--3-3---||-7-7-7-7-7-7-10-10-|--9--9-9-9-9-9-2-2-|
|-7----3--0--|-2----3-3--3-3--o||-5-5-5-5-5-5--8--8-|--7--7-7-7-7-7-0-0-|
|-7----3--0--|-2----3-3--3-3---||-------------------|-------------------|
|
|------------|-----------------||-------------------|-------------------|
|------------|----------------o||-------------------|-------------------|
|------------|-----------------||-------------------|-------------------|
|-7----3--0--|-2----3-3--3-3---||-------------------|-------------------|
|-7----3--0--|-2----3-3--3-3--o||-0-----------------|-(0)---------------|
|-7----3--0--|-2----3-3--3-3---||-0-----------------|-(0)---------------|


|-------------------|--------------------|
|-------------------|--------------------|
|--3--3-3-3-3-3-7-7-|--6--6-6-6-2-2-2-2--|
|--3--3-3-3-3-3-7-7-|--6--6-6-6-2-2-2-2--|
|--1--1-1-1-1-1-5-5-|--4--4-4-4-0-0-0-0--|
|-------------------|--------------------|
|
|-------------------|--------------------|
|-------------------|--------------------|
|-------------------|--------------------|
|-------------------|--------------------|
|-(0)---------------|-(0)----------------|
|-(0)---------------|-(0)----------------|


  Q=130
|-----------------|---------------------|
|-3-3-3-3-3-3-6-6-|--5--5-5-5--5--5-----|
|-2-2-2-2-2-2-5-5-|--4--4-4-4--4--4--2--|
|-0-0-0-0-0-0-3-3-|--2--2-2-2--2--2--2--|
|-----------------|------------------0--|
|-----------------|---------------------|
|
|-----------------|---------------------|
|-----------------|---------------------|
|-----------------|------------------6--|
|-----------------|------------------6--|
|-0---------------|-(0)-------(0)----4--|
|-0---------------|-(0)-------(0)-------|


|-----------|------------|-----------------|-------------------------|
|--------3--|------------|-----------------|-------------------------|
|-3------2--|-6----------|-----------------|-------------------------|
|-3------0--|-6----0-0---|-----------------|-------------------------|
|-1---------|-4----0-0---|-0-0-0-0-0-0-0-0-|-0-0-0-0-0-0-0-0-0-0-0-0-|
|-----------|------0-0---|-0-0-0-0-0-0-0-0-|-0-0-0-0-0-0-0-0-0-0-0-0-|
|
|-----------|------------|-----------------|-------------------------|
|--------6--|-5----------|-----------------|-------------------------|
|-7------5--|-4----------|-----------------|-------------------------|
|-7------3--|-2----------|-----------------|-------------------------|
|-5---------|------0-0---|-0-0-0-0-0-0-0-0-|-0-0-0-0-0-0-0-0-0-0-0-0-|
|-----------|------0-0---|-0-0-0-0-0-0-0-0-|-0-0-0-0-0-0-0-0-0-0-0-0-|


  Gtrs I, II
|-----------------|-----------------|-----------------|
|-----------------|-----------------|-----------------|
|-----------------|-----------------|-----------------|
|-----------------|-----------------|-----------------|
|-0-0-0-0-0-0-----|-0-0-0-0-0-0-----|-0-0-0-0-0-0-0-0-|
|-0-0-0-0-0-0-----|-0-0-0-0-0-0-----|-0-0-0-0-0-0-0-0-|


|-------------------------|-----------------|-----------------|
|-------------------------|-----------------|-----------------|
|-------------------------|-----------------|-----------------|
|-------------------------|-----------------|-----------------|
|-0-0-0-0-0-0-0-0-0-0-0-0-|-0-0-0-0-0-0-----|-0-0-0-0-0-0-----|
|-0-0-0-0-0-0-0-0-0-0-0-0-|-0-0-0-0-0-0-----|-0-0-0-0-0-0-----|


  Q=114                   Q=103
  Gtr I
|-----------|-----------|-----------------|-------------------------|
|-----------|-----------|-----------------|-------------------------|
|-----------|-----------|-----------------|-------------------------|
|-5---------|-----------|-----------------|-------------------------|
|------7----|-8----5----|-0-0-0-0-0-0-0-0-|-0-0-0-0-0-0-0-0-0-0-0-0-|
|-----------|-----------|-0-0-0-0-0-0-0-0-|-0-0-0-0-0-0-0-0-0-0-0-0-|
|
| Gtr II
|-----------|-----------|-----------------|-------------------------|
|-----------|-----------|-----------------|-------------------------|
|-----------|-----------|-----------------|-------------------------|
|-8----5----|-7---------|-----------------|-------------------------|
|-----------|------9----|-0-0-0-0-0-0-0-0-|-0-0-0-0-0-0-0-0-0-0-0-0-|
|-----------|-----------|-0-0-0-0-0-0-0-0-|-0-0-0-0-0-0-0-0-0-0-0-0-|


  Gtrs I, II
|-----------------|-----------------|-----------------|
|-----------------|-----------------|-----------------|
|-----------------|-----------------|-----------------|
|-----------------|-----------------|-----------------|
|-0-0-0-0-0-0-----|-0-0-0-0-0-0-----|-0-0-0-0-0-0-0-0-|
|-0-0-0-0-0-0-----|-0-0-0-0-0-0-----|-0-0-0-0-0-0-0-0-|


|-------------------------|-----------------|-----------------|
|-------------------------|-----------------|-----------------|
|-------------------------|-----------------|-----------------|
|-------------------------|-----------------|-----------------|
|-0-0-0-0-0-0-0-0-0-0-0-0-|-0-0-0-0-0-0-----|-0-0-0-0-0-0-----|
|-0-0-0-0-0-0-0-0-0-0-0-0-|-0-0-0-0-0-0-----|-0-0-0-0-0-0-----|


|-----------------|-------------------------|-----------------|
|-----------------|-------------------------|-----------------|
|-----------------|-------------------------|-----------------|
|-----------------|-------------------------|-----------------|
|-0-0-0-0-0-0-0-0-|-0-0-0-0-0-0-0-0-0-0-0-0-|-0-0-0-0-0-0-----|
|-0-0-0-0-0-0-0-0-|-0-0-0-0-0-0-0-0-0-0-0-0-|-0-0-0-0-0-0-----|


|-----------------|-----------------|-------------------------|
|-----------------|-----------------|-------------------------|
|-----------------|-----------------|-------------------------|
|-----------------|-----------------|-------------------------|
|-0-0-0-0-0-0-----|-0-0-0-0-0-0-0-0-|-0-0-0-0-0-0-0-0-0-0-0-0-|
|-0-0-0-0-0-0-----|-0-0-0-0-0-0-0-0-|-0-0-0-0-0-0-0-0-0-0-0-0-|


  Gtr I
|-----------------|-----------------|------------|------------|
|-----------------|-----------------|------------|------------|
|-----------------|-----------------|------------|------------|
|-----------------|-----------------|-5----------|------------|
|-0-0-0-0-0-0-----|-0-0-0-0-0-0-----|-------7----|--8----5----|
|-0-0-0-0-0-0-----|-0-0-0-0-0-0-----|------------|------------|
|
| Gtr II
|-----------------|-----------------|------------|------------||
|-----------------|-----------------|------------|------------||
|-----------------|-----------------|------------|------------||
|-----------------|-----------------|-8----------|------------||
|-0-0-0-0-0-0-----|-0-0-0-0-0-0-----|------10----|-12----9----||
|-0-0-0-0-0-0-----|-0-0-0-0-0-0-----|------------|------------||




____________________________________________________
____________________________________________________
____________________________________________________
___________With Eyes ever Turned Inward_____________
____________________________________________________
____________________________________________________



Gtr I (B F# B E G# C#) - 'Guitar I'
Gtr II (B F# B E G# C#) - 'Guitar II'
Gtr III (B F# B E G# C#) - 'Solo Guitar'
Gtr IV (B F# B E G# C#) - 'Harmony Guitar'

  Q=210
 4/4
  Gtr I
|-----------------------------|-------------------------------|
|-----------------------------|-------------------------------|
|-----------------------------|-------------------------------|
|-----------------------------|-------------------------------|
|--------5-5--5---------------|--4--4--4----------------------|
|-0-0--0--------7-7--7-0-0--0-|----------7-7--7-3-3--3-7-7--7-|
|
| Gtr II
|-----------------------------|--------------------------------|
|-----------------------------|--------------------------------|
|-----------------------------|--------------------------------|
|-0---------------------------|-(0)----------------------------|
|-0---------------------------|-(0)----------------------------|
|-0---------------------------|-(0)----------------------------|


|------------------------------|-----------------------------|
|------------------------------|-----------------------------|
|------------------------------|-----------------------------|
|------------------------------|-----------------------------|
|---------5-5--5---------------|-4-4--4-5-5--5-7-7--7-8-8--8-|
|-0-0---0--------7-7--7-0-0--0-|-----------------------------|
|
|------------------------------|-----------------------------|
|------------------------------|-----------------------------|
|------------------------------|-----------------------------|
|-0-0-0---0--------------------|-----------------------------|
|-0-0-0---0--------------------|-----------------------------|
|-0-0-0---0--------------------|-----------------------------|


|-----------------------------|-------------------------------|
|-----------------------------|-------------------------------|
|-----------------------------|-------------------------------|
|-----------------------------|-------------------------------|
|--------5-5--5---------------|--4--4--4----------------------|
|-0-0--0--------7-7--7-0-0--0-|----------7-7--7-3-3--3-7-7--7-|
|
|-----------------------------|-------------------------------|
|-----------------------------|-------------------------------|
|-----------------------------|-------------------------------|
|-0---------------------------|-(0)---------------------------|
|-0---------------------------|-(0)---------------------------|
|-0---------------------------|-(0)---------------------------|


|--------------------------------|-------------------------|
|--------------------------------|-------------------------|
|--------------------------------|-------------------------|
|--------------------------------|---------------0-0-0-0-0-|
|---------5-5---5----------------|-4-4--4--------0-0-0-0-0-|
|-0-0---0---------7-7--7-0-0---0-|--------7-7--7-0-0-0-0-0-|
|
|--------------------------------|-------------------------|
|--------------------------------|-------------------------|
|--------------------------------|-------------------------|
|-0-0-0-------0-0-0------0-0-0---|---------------0-0-0-0-0-|
|-0-0-0-------0-0-0------0-0-0---|---------------0-0-0-0-0-|
|-0-0-0-------0-0-0------0-0-0---|---------------0-0-0-0-0-|


|-----------------------------|-----------------------------|
|-----------------------------|-----------------------------|
|-----------------------------|-----------------------------|
|-----------------------------|-----------------------------|
|--------5-5--5---------------|-4-4--4----------------------|
|-0-0--0--------7-7--7-0-0--0-|--------7-7--7-3-3--3-7-7--7-|
|
|-----------------------------|-----------------------------|
|-----------------------------|-----------------------------|
|-----------------------------|-----------------------------|
|-----------------------------|-----------------------------|
|--------5-5--5---------------|-4-4--4----------------------|
|-0-0--0--------7-7--7-0-0--0-|--------7-7--7-3-3--3-7-7--7-|


  Gtrs I, II
|-----------------------------|-----------------------------|
|-----------------------------|-----------------------------|
|-----------------------------|-----------------------------|
|-----------------------------|-----------------------------|
|--------5-5--5---------------|-4-4--4-5-5--5-7-7--7-8-8--8-|
|-0-0--0--------7-7--7-0-0--0-|-----------------------------|


|-----------------------------|-----------------------------|
|-----------------------------|-----------------------------|
|-----------------------------|-----------------------------|
|-----------------------------|-----------------------------|
|--------5-5--5---------------|-4-4--4----------------------|
|-0-0--0--------7-7--7-0-0--0-|--------7-7--7-3-3--3-7-7--7-|


|-----------------------------|-------------------------|
|-----------------------------|-------------------------|
|-----------------------------|-------------------------|
|-----------------------------|---------------0-0-0-3-2-|
|--------5-5--5---------------|-4-4--4--------0-0-0-3-2-|
|-0-0--0--------7-7--7-0-0--0-|--------7-7--7-0-0-0-3-2-|


  Gtr I
|-----------------------------|-----------------------------|
|-----------------------------|-----------------------------|
|-----------------------------|-----------------------------|
|-----------------------------|-----------------------------|
|--------8-8--8-5-5--5--------|-7-7--7-4-4--4-5-5--5-7-7--7-|
|-0-0--0---------------0-0--0-|-----------------------------|
|
| Gtr II
|-----------------------------|-----------------------------|
|-----------------------------|-----------------------------|
|-----------------------------|-----------------------------|
|-----------------------------|-----------------------------|
|--------5-5--5---------------|-4-4--4----------------------|
|-0-0--0--------7-7--7-0-0--0-|--------7-7--7-3-3--3-7-7--7-|


|-----------------------------|-----------------------------------|
|-----------------------------|-----------------------------------|
|-----------------------------|-----------------------------------|
|-----------------------------|-----------------------------------|
|--------8-8--8-5-5--5--------|-7-7--7-8-8--8-10-10--10-12-12--12-|
|-0-0--0---------------0-0--0-|-----------------------------------|
|
|-----------------------------|-----------------------------------|
|-----------------------------|-----------------------------------|
|-----------------------------|-----------------------------------|
|-----------------------------|-----------------------------------|
|--------5-5--5---------------|-4-4--4-5-5--5--7--7---7--8--8---8-|
|-0-0--0--------7-7--7-0-0--0-|-----------------------------------|


|-----------------------------------|-----------------------------------------|
|-----------------------------------|-----------------------------------------|
|-----------------------------------|-----------------------------------------|
|-----------------------------------|-----------------------------------------|
|-----------------------------------|-----------------------------------------|
|-0-0--0-15-15--15-12-12--12-0-0--0-|-14-14--14-11-11--11-12-12--12-14-14--14-|
|
|-----------------------------------|-----------------------------------------|
|-----------------------------------|-----------------------------------------|
|-----------------------------------|-----------------------------------------|
|-----------------------------------|-----------------------------------------|
|---------5--5---5------------------|--4--4---4-------------------------------|
|-0-0--0------------7--7---7-0-0--0-|------------7--7---7--3--3---3--7--7---7-|


                                                                      Q=244
|-----------------------------------|-------------------------------|--------|
|-----------------------------------|-------------------------------|--------|
|-----------------------------------|-------------------------------|--------|
|-----------------------------------|---------------------0-0-0-3-2-|-0------|
|-----------------------------------|---------------------0-0-0-3-2-|-0------|
|-0-0--0-15-15--15-12-12--12-0-0--0-|-14-14--14-12-12--12-0-0-0-3-2-|-0------|
|
|                                                                     \4______
|-----------------------------------|-------------------------------|-5------|
|-----------------------------------|-------------------------------|-3------|
|-----------------------------------|-------------------------------|-2------|
|-----------------------------------|---------------------0-0-0-3-2-|--------|
|---------5--5---5------------------|--4--4---4-----------0-0-0-3-2-|--------|
|-0-0--0------------7--7---7-0-0--0-|------------7--7---7-0-0-0-3-2-|--------|


              5/4
|------------|-----------------|
|------------|-----------------|
|------------|-----------------|
|-(0)--------|-(0)--------(0)--|
|-(0)--------|-(0)--------(0)--|
|-(0)--------|-(0)--------(0)--|
|
|               /
|-(5)--------|-(5)--------(5)--|
|-(3)--------|-(3)--------(3)--|
|-(2)--------|-(2)--------(2)--|
|------------|-----------------|
|------------|-----------------|
|------------|-----------------|


  Q=230
 4/4
|-----------------------|------------------------|
|-----------------------|------------------------|
|-----------------------|------------------------|
|-----------------------|-0-0-0-0-0-0-0-0-0-0-0--|
|-----------------------|-0-0-0-0-0-0-0-0-0-0-0--|
|-----------------------|-0-0-0-0-0-0-0-0-0-0-0--|
|
| |
|-----------------------|------------------------|
|-----------------------|------------------------|
|-----------------------|------------------------|
|-0-0-0-0-0-0-0-0-0-0-0-|------------------------|
|-0-0-0-0-0-0-0-0-0-0-0-|------------------------|
|-0-0-0-0-0-0-0-0-0-0-0-|------------------------|


|-----------------------|------------------|-----------------------|
|-----------------------|------------------|-----------------------|
|-----------------------|------------------|-----------------------|
|-0-0-0-0-0-0-0-0-0-0-0-|------------------|-0-0-0-0-0-0-0-0-0-0-0-|
|-0-0-0-0-0-0-0-0-0-0-0-|-3-----6-------5--|-0-0-0-0-0-0-0-0-0-0-0-|
|-0-0-0-0-0-0-0-0-0-0-0-|---0-0-----0-0----|-0-0-0-0-0-0-0-0-0-0-0-|
|
|-----------------------|------------------|-----------------------|
|-----------------------|------------------|-----------------------|
|-----------------------|------------------|-----------------------|
|-0-0-0-0-0-0-0-0-0-0-0-|------------------|-0-0-0-0-0-0-0-0-0-0-0-|
|-0-0-0-0-0-0-0-0-0-0-0-|-3-------6-----5--|-0-0-0-0-0-0-0-0-0-0-0-|
|-0-0-0-0-0-0-0-0-0-0-0-|---0-0-----0-0----|-0-0-0-0-0-0-0-0-0-0-0-|


|---------------------|-----------------------|-------------------|
|---------------------|-----------------------|-------------------|
|---------------------|-----------------------|-------------------|
|---------------------|-0-0-0-0-0-0-0-0-0-0-0-|-------------------|
|-5-------------------|-0-0-0-0-0-0-0-0-0-0-0-|-3-------6-----5---|
|---5-7-10-3-5----7---|-0-0-0-0-0-0-0-0-0-0-0-|---0-0-----0-0-----|
|
|---------------------|-----------------------|-------------------|
|---------------------|-----------------------|-------------------|
|---------------------|-----------------------|-------------------|
|-0-------------------|-0-0-0-0-0-0-0-0-0-0-0-|-------------------|
|---------------------|-0-0-0-0-0-0-0-0-0-0-0-|-3-----6-------5---|
|---5-7-10-3-5-7-(7)--|-0-0-0-0-0-0-0-0-0-0-0-|---0-0-----0-0-----|


|---------------------------------|---------------------------------|
|---------------------------------|---------------------------------|
|---------------------------------|---------------------------------|
|---------------------------------|-------------------------1---1---|
|-----------------0---0---1---1---|-----------------3---3-----------|
|-1---1---1---1-------------------|-4---4---4---4-------------------|
|
|---------------------------------|---------------------------------|
|---------------------------------|---------------------------------|
|---------------------------------|---------------------------------|
|---------------------------------|-------------------------1-1---1-|
|-----------------0-0---0-1-1---1-|-----------------3-3---3---------|
|-1-1---1-1-1---1-----------------|-4-4---4-4-4---4-----------------|


|-----------------------|------------------|-----------------------|
|-----------------------|------------------|-----------------------|
|-----------------------|------------------|-----------------------|
|-0-0-0-0-0-0-0-0-0-0-0-|------------------|-0-0-0-0-0-0-0-0-0-0-0-|
|-0-0-0-0-0-0-0-0-0-0-0-|-3-----6-------5--|-0-0-0-0-0-0-0-0-0-0-0-|
|-0-0-0-0-0-0-0-0-0-0-0-|---0-0-----0-0----|-0-0-0-0-0-0-0-0-0-0-0-|
|
|-----------------------|------------------|-----------------------|
|-----------------------|------------------|-----------------------|
|-----------------------|------------------|-----------------------|
|-0-0-0-0-0-0-0-0-0-0-0-|------------------|-0-0-0-0-0-0-0-0-0-0-0-|
|-0-0-0-0-0-0-0-0-0-0-0-|-3-------6-----5--|-0-0-0-0-0-0-0-0-0-0-0-|
|-0-0-0-0-0-0-0-0-0-0-0-|---0-0-----0-0----|-0-0-0-0-0-0-0-0-0-0-0-|


|---------------------|-----------------------|-------------------|
|---------------------|-----------------------|-------------------|
|---------------------|-----------------------|-------------------|
|---------------------|-0-0-0-0-0-0-0-0-0-0-0-|-------------------|
|-5-------------------|-0-0-0-0-0-0-0-0-0-0-0-|-3-------6-----5---|
|---5-7-10-3-5----7---|-0-0-0-0-0-0-0-0-0-0-0-|---0-0-----0-0-----|
|
|---------------------|-----------------------|-------------------|
|---------------------|-----------------------|-------------------|
|---------------------|-----------------------|-------------------|
|---------------------|-0-0-0-0-0-0-0-0-0-0-0-|-------------------|
|-5-------------------|-0-0-0-0-0-0-0-0-0-0-0-|-3-----6-------5---|
|---5-7-10-3-5-7-(7)--|-0-0-0-0-0-0-0-0-0-0-0-|---0-0-----0-0-----|


|---------------------------------|---------------------------------|
|---------------------------------|---------------------------------|
|---------------------------------|---------------------------------|
|---------------------------------|-------------------------1---1---|
|-----------------0---0---1---1---|-----------------3---3-----------|
|-1---1---1---1-------------------|-4---4---4---4-------------------|
|
|---------------------------------|---------------------------------|
|---------------------------------|---------------------------------|
|---------------------------------|---------------------------------|
|---------------------------------|-------------------------1-1---1-|
|-----------------0-0---0-1-1---1-|-----------------3-3---3---------|
|-1-1---1-1-1---1-----------------|-4-4---4-4-4---4-----------------|


|---------------------------------|---------------------------------|
|---------------------------------|---------------------------------|
|---------------------------------|---------------------------------|
|---------------------------------|---------------------------------|
|-----------------6---6---5---5---|-5---5---3---3---5---5---6---6---|
|-5---5---5---5-------------------|---------------------------------|
|
|---------------------------------|---------------------------------|
|---------------------------------|---------------------------------|
|---------------------------------|---------------------------------|
|---------------------------------|---------------------------------|
|-----------------6-6---6-5-5---5-|-5-5---5-3-3---3-5-5---5-6-6---6-|
|-5-5---5-5-5---5-----------------|---------------------------------|


|---------------------------------|---------------------------------|
|---------------------------------|---------------------------------|
|---------------------------------|---------------------------------|
|---------------------------------|---------------------------------|
|-----------------3---3---1---1---|-1---1---0---0---1---1-----------|
|-1---1---1---1-------------------|-------------------------4---4---|
|
|---------------------------------|---------------------------------|
|---------------------------------|---------------------------------|
|---------------------------------|---------------------------------|
|---------------------------------|---------------------------------|
|-----------------3-3---3-1-1---1-|-1-1---1-0-0---0-1-1---1---------|
|-1-1---1-1-1---1-----------------|-------------------------4-4---4-|


|---------------------------------|---------------------------------|
|---------------------------------|---------------------------------|
|---------------------------------|---------------------------------|
|---------------------------------|---------------------------------|
|-----------------6---6---5---5---|-5---5---3---3---5---5---6---6---|
|-5---5---5---5-------------------|---------------------------------|
|
|---------------------------------|---------------------------------|
|---------------------------------|---------------------------------|
|---------------------------------|---------------------------------|
|---------------------------------|---------------------------------|
|-----------------6-6---6-5-5---5-|-5-5---5-3-3---3-5-5---5-6-6---6-|
|-5-5---5-5-5---5-----------------|---------------------------------|


|---------------------|---------------------|----------------------------------|
|---------------------|---------------------|----------------------------------|
|---------------------|---------------------|----------------------------------|
|---------------------|---------------------|----------------------------------|
|-------------3---1---|-------------5---6---|-----------------6---6---5---5----|
|-1-1-1-1-1-1---1---1-|-4-4-4-4-4-4---4---4-|-5---5---5---5--------------------|
|
|---------------------|---------------------|----------------------------------|
|---------------------|---------------------|----------------------------------|
|---------------------|---------------------|----------------------------------|
|---------------------|---------------------|----------------------------------|
|-------------3---1---|-------------5---6---|-----------------6-6---6-5-5---5--|
|-1-1-1-1-1-1---1---1-|-4-4-4-4-4-4---4---4-|-5-5---5-5-5---5------------------|


|---------------------------------|---------------------------------|
|---------------------------------|---------------------------------|
|---------------------------------|---------------------------------|
|---------------------------------|---------------------------------|
|-5---5---3---3---5---5---6---6---|-----------------3---3---1---1---|
|---------------------------------|-1---1---1---1-------------------|
|
|---------------------------------|---------------------------------|
|---------------------------------|---------------------------------|
|---------------------------------|---------------------------------|
|---------------------------------|---------------------------------|
|-5-5---5-3-3---3-5-5---5-6-6---6-|-----------------3-3---3-1-1---1-|
|---------------------------------|-1-1---1-1-1---1-----------------|


|---------------------------------|---------------------------------|
|---------------------------------|---------------------------------|
|---------------------------------|---------------------------------|
|---------------------------------|---------------------------------|
|-1---1---0---0---1---1-----------|-----------------6---6---5---5---|
|-------------------------4---4---|-5---5---5---5-------------------|
|
|---------------------------------|---------------------------------|
|---------------------------------|---------------------------------|
|---------------------------------|---------------------------------|
|---------------------------------|---------------------------------|
|-1-1---1-0-0---0-1-1---1---------|-----------------6-6---6-5-5---5-|
|-------------------------4-4---4-|-5-5---5-5-5---5-----------------|


|---------------------------------|---------------------|----------------------|
|---------------------------------|---------------------|----------------------|
|---------------------------------|---------------------|----------------------|
|---------------------------------|---------------------|----------------------|
|-5---5---3---3---5---5---6---6---|-------------3---1---|-------------5---6----|
|---------------------------------|-1-1-1-1-1-1---1---1-|-4-4-4-4-4-4---4---4--|
|
|---------------------------------|---------------------|----------------------|
|---------------------------------|---------------------|----------------------|
|---------------------------------|---------------------|----------------------|
|---------------------------------|---------------------|----------------------|
|-5-5---5-3-3---3-5-5---5-6-6---6-|-------------3---1---|-------------5---6----|
|---------------------------------|-1-1-1-1-1-1---1---1-|-4-4-4-4-4-4---4---4--|


|-----------------------|------------------|-----------------------|
|-----------------------|------------------|-----------------------|
|-----------------------|------------------|-----------------------|
|-0-0-0-0-0-0-0-0-0-0-0-|------------------|-0-0-0-0-0-0-0-0-0-0-0-|
|-0-0-0-0-0-0-0-0-0-0-0-|-3-----6-------5--|-0-0-0-0-0-0-0-0-0-0-0-|
|-0-0-0-0-0-0-0-0-0-0-0-|---0-0-----0-0----|-0-0-0-0-0-0-0-0-0-0-0-|
|
|-----------------------|------------------|-----------------------|
|-----------------------|------------------|-----------------------|
|-----------------------|------------------|-----------------------|
|-0-0-0-0-0-0-0-0-0-0-0-|------------------|-0-0-0-0-0-0-0-0-0-0-0-|
|-0-0-0-0-0-0-0-0-0-0-0-|-3-------6-----5--|-0-0-0-0-0-0-0-0-0-0-0-|
|-0-0-0-0-0-0-0-0-0-0-0-|---0-0-----0-0----|-0-0-0-0-0-0-0-0-0-0-0-|


|---------------------|-----------------------|-------------------|
|---------------------|-----------------------|-------------------|
|---------------------|-----------------------|-------------------|
|-0-------------------|-0-0-0-0-0-0-0-0-0-0-0-|-------------------|
|---------------------|-0-0-0-0-0-0-0-0-0-0-0-|-3-------6-----5---|
|---5-7-10-3-5----7---|-0-0-0-0-0-0-0-0-0-0-0-|---0-0-----0-0-----|
|
|---------------------|-----------------------|-------------------|
|---------------------|-----------------------|-------------------|
|---------------------|-----------------------|-------------------|
|-0-------------------|-0-0-0-0-0-0-0-0-0-0-0-|-------------------|
|---------------------|-0-0-0-0-0-0-0-0-0-0-0-|-3-----6-------5---|
|---5-7-10-3-5-7-(7)--|-0-0-0-0-0-0-0-0-0-0-0-|---0-0-----0-0-----|


|---------------------------------|---------------------------------|
|---------------------------------|---------------------------------|
|---------------------------------|---------------------------------|
|---------------------------------|-------------------------1---1---|
|-----------------0---0---1---1---|-----------------3---3-----------|
|-1---1---1---1-------------------|-4---4---4---4-------------------|
|
|---------------------------------|---------------------------------|
|---------------------------------|---------------------------------|
|---------------------------------|---------------------------------|
|---------------------------------|-------------------------1-1---1-|
|-----------------0-0---0-1-1---1-|-----------------3-3---3---------|
|-1-1---1-1-1---1-----------------|-4-4---4-4-4---4-----------------|


|-----------------------|------------------|-----------------------|
|-----------------------|------------------|-----------------------|
|-----------------------|------------------|-----------------------|
|-0-0-0-0-0-0-0-0-0-0-0-|------------------|-0-0-0-0-0-0-0-0-0-0-0-|
|-0-0-0-0-0-0-0-0-0-0-0-|-3-----6-------5--|-0-0-0-0-0-0-0-0-0-0-0-|
|-0-0-0-0-0-0-0-0-0-0-0-|---0-0-----0-0----|-0-0-0-0-0-0-0-0-0-0-0-|
|
|-----------------------|------------------|-----------------------|
|-----------------------|------------------|-----------------------|
|-----------------------|------------------|-----------------------|
|-0-0-0-0-0-0-0-0-0-0-0-|------------------|-0-0-0-0-0-0-0-0-0-0-0-|
|-0-0-0-0-0-0-0-0-0-0-0-|-3-------6-----5--|-0-0-0-0-0-0-0-0-0-0-0-|
|-0-0-0-0-0-0-0-0-0-0-0-|---0-0-----0-0----|-0-0-0-0-0-0-0-0-0-0-0-|


|---------------------|-----------------------|-------------------|
|---------------------|-----------------------|-------------------|
|---------------------|-----------------------|-------------------|
|---------------------|-0-0-0-0-0-0-0-0-0-0-0-|-------------------|
|-5-------------------|-0-0-0-0-0-0-0-0-0-0-0-|-3-------6-----5---|
|---5-7-10-3-5----7---|-0-0-0-0-0-0-0-0-0-0-0-|---0-0-----0-0-----|
|
|---------------------|-----------------------|-------------------|
|---------------------|-----------------------|-------------------|
|---------------------|-----------------------|-------------------|
|---------------------|-0-0-0-0-0-0-0-0-0-0-0-|-------------------|
|-5-------------------|-0-0-0-0-0-0-0-0-0-0-0-|-3-----6-------5---|
|---5-7-10-3-5-7-(7)--|-0-0-0-0-0-0-0-0-0-0-0-|---0-0-----0-0-----|


                                   3/4
|---------------------------------|-------------------------|------|
|---------------------------------|-------------------------|------|
|---------------------------------|-------------------------|------|
|---------------------------------|-------------------------|-4----|
|-----------------0---0---1---1---|-----------------3---3---|------|
|-1---1---1---1-------------------|-4---4---4---4-----------|------|
|
|---------------------------------|-------------------------|------|
|---------------------------------|-------------------------|------|
|---------------------------------|-------------------------|------|
|---------------------------------|-------------------------|-1----|
|-----------------0-0---0-1-1---1-|-----------------3-3---3-|------|
|-1-1---1-1-1---1-----------------|-4-4---4-4-4---4---------|------|


             Q=170
|----------|-----------------|-----------------|-----------------|
|----------|-----------------|-----------------|-----------------|
|----------|-----------------|-----------------|-----------------|
|-(4)------|-0-0-0-0-0-0-0-0-|-0-0-0-0-0-0-0-0-|-0-0-0-0-0-0-0-0-|
|----------|-0-0-0-0-0-0-0-0-|-0-0-0-0-0-0-0-0-|-0-0-0-0-0-0-0-0-|
|----------|-0-0-0-0-0-0-0-0-|-0-0-0-0-0-0-0-0-|-0-0-0-0-0-0-0-0-|
|
|----------|-----------------|-----------------|-----------------|
|----------|-----------------|-----------------|-----------------|
|----------|-----------------|-----------------|-----------------|
|-(1)------|-0-0-0-0-0-0-0-0-|-0-0-0-0-0-0-0-0-|-0-0-0-0-0-0-0-0-|
|----------|-0-0-0-0-0-0-0-0-|-0-0-0-0-0-0-0-0-|-0-0-0-0-0-0-0-0-|
|----------|-0-0-0-0-0-0-0-0-|-0-0-0-0-0-0-0-0-|-0-0-0-0-0-0-0-0-|


  Gtrs I, II
|-----------------|-----------------|-----------------|-----------------|
|-----------------|-----------------|-----------------|-----------------|
|-----------------|-----------------|-----------------|-----------------|
|-0-0-0-0-0-0-0-0-|-0-0-0-0-0-0-0-0-|-0-0-0-0-0-0-0-0-|-0-0-0-0-0-0-0-0-|
|-0-0-0-0-0-0-0-0-|-0-0-0-0-0-0-0-0-|-0-0-0-0-0-0-0-0-|-0-0-0-0-0-0-0-0-|
|-0-0-0-0-0-0-0-0-|-0-0-0-0-0-0-0-0-|-0-0-0-0-0-0-0-0-|-0-0-0-0-0-0-0-0-|


  Gtr I
|-----------------|-----------------|-----------------|-----------------|
|-----------------|-----------------|-----------------|-----------------|
|-----------------|-----------------|-----------------|-----------------|
|-0-0-0-0-0-0-0-0-|-0-0-0-0-0-0-0-0-|-0-0-0-0-0-0-----|-0-0-0-0-0-0-0-0-|
|-0-0-0-0-0-0-0-0-|-0-0-0-0-0-0-0-0-|-0-0-0-0-0-0-5---|-0-0-0-0-0-0-0-0-|
|-0-0-0-0-0-0-0-0-|-0-0-0-0-0-0-0-0-|-0-0-0-0-0-0---4-|-0-0-0-0-0-0-0-0-|
|
| Gtr II
|-----------------|-----------------|-----------------|-----------------|
|-----------------|-----------------|-----------------|-----------------|
|-----------------|-----------------|-----------------|-----------------|
|-0-0-0-0-0-0-0-0-|-0-0-0-0-0-0-----|-0-0-0-0-0-0-0-0-|-0-0-0-0-0-0-----|
|-0-0-0-0-0-0-0-0-|-0-0-0-0-0-0-6---|-0-0-0-0-0-0-0-0-|-0-0-0-0-0-0-6---|
|-0-0-0-0-0-0-0-0-|-0-0-0-0-0-0---5-|-0-0-0-0-0-0-0-0-|-0-0-0-0-0-0---5-|


|-----------------|-----------------|-----------------|-----------------|
|-----------------|-----------------|-----------------|-----------------|
|-----------------|-----------------|-----------------|-----------------|
|-0-0-0-0-0-0-----|-0-0-0-0-0-0-0-0-|-0-0-0-0-0-0-----|-0-0-0-0-0-0-0-0-|
|-0-0-0-0-0-0-5---|-0-0-0-0-0-0-0-0-|-0-0-0-0-0-0-3-6-|-0-0-0-0-0-0-0-0-|
|-0-0-0-0-0-0---4-|-0-0-0-0-0-0-0-0-|-0-0-0-0-0-0-----|-0-0-0-0-0-0-0-0-|
|
|-----------------|-----------------|-----------------|-----------------|
|-----------------|-----------------|-----------------|-----------------|
|-----------------|-----------------|-----------------|-----------------|
|-0-0-0-0-0-0-0-0-|-0-0-0-0-0-0-----|-0-0-0-0-0-0-0-0-|-0-0-0-0-0-0-----|
|-0-0-0-0-0-0-0-0-|-0-0-0-0-0-0-6---|-0-0-0-0-0-0-0-0-|-0-0-0-0-0-0-6---|
|-0-0-0-0-0-0-0-0-|-0-0-0-0-0-0---5-|-0-0-0-0-0-0-0-0-|-0-0-0-0-0-0---5-|


|-------------2--|-----------------|-----------------|-----------------|
|-----------4----|-----------------|-----------------|-----------------|
|----------------|-----------------|-----------------|-----------------|
|-0-0-0-0-0------|-0-0-0-0-0-0-0-0-|-0-0-0-0-0-0-0---|-0-0-0-0-0-0-0-0-|
|-0-0-0-0-0------|-0-0-0-0-0-0-0-0-|-0-0-0-0-0-0-----|-0-0-0-0-0-0-0-0-|
|-0-0-0-0-0------|-0-0-0-0-0-0-0-0-|-0-0-0-0-0-0---4-|-0-0-0-0-0-0-0-0-|
|
|----------------|-----------------|-----------------|-----------------|
|----------------|-----------------|-----------------|-----------------|
|----------------|-----------------|-----------------|-----------------|
|-0-0-0-0-0------|-0-0-0-0-0-0-----|-0-0-0-0-0-0-0-0-|-0-0-0-0-0-0-----|
|-0-0-0-0-0-3-5--|-0-0-0-0-0-0-6---|-0-0-0-0-0-0-0-0-|-0-0-0-0-0-0-6---|
|-0-0-0-0-0------|-0-0-0-0-0-0---5-|-0-0-0-0-0-0-0-0-|-0-0-0-0-0-0---5-|


|-----------------|-----------------|-----------------|-----------------|
|-----------------|-----------------|-----------------|-----------------|
|-----------------|-----------------|-----------------|-----------------|
|-0-0-0-0-0-0-----|-0-0-0-0-0-0-0-0-|-0-0-0-0-0-0-----|-0-0-0-0-0-0-0-0-|
|-0-0-0-0-0-0-5---|-0-0-0-0-0-0-0-0-|-0-0-0-0-0-0-3-6-|-0-0-0-0-0-0-0-0-|
|-0-0-0-0-0-0---4-|-0-0-0-0-0-0-0-0-|-0-0-0-0-0-0-----|-0-0-0-0-0-0-0-0-|
|
|-----------------|-----------------|-----------------|-----------------|
|-----------------|-----------------|-----------------|-----------------|
|-----------------|-----------------|-----------------|-----------------|
|-0-0-0-0-0-0-0-0-|-0-0-0-0-0-0-----|-0-0-0-0-0-0-0-0-|-0-0-0-0-0-0-----|
|-0-0-0-0-0-0-0-0-|-0-0-0-0-0-0-6---|-0-0-0-0-0-0-0-0-|-0-0-0-0-0-0-6---|
|-0-0-0-0-0-0-0-0-|-0-0-0-0-0-0---5-|-0-0-0-0-0-0-0-0-|-0-0-0-0-0-0---5-|


|----------------|-----------------|-----|
|-----------4-7--|-----------------|-----|
|----------------|-----------------|-----|
|-0-0-0-0-0------|-0-0-0-0-0-0-0-0-|-----|
|-0-0-0-0-0------|-0-0-0-0-0-0-0-0-|-----|
|-0-0-0-0-0------|-0-0-0-0-0-0-0-0-|-----|
|
|----------------|-----------------|-----|
|----------------|-----------------|-----|
|----------------|-----------------|-----|
|-0-0-0-0-0------|-0-0-0-0-0-0-0-0-|-----|
|-0-0-0-0-0-3-5--|-0-0-0-0-0-0-0-0-|-----|
|-0-0-0-0-0------|-0-0-0-0-0-0-0-0-|-----|


 4/4
|---------------------------------|----------------------------------|
|---------------------------------|----------------------------------|
|---------------------------------|----------------------------------|
|---------------------------------|----------------------------------|
|-----------------0-------1-------|-----------------1-------3--------|
|-1-1-1-1-1-1-1-1---1-1-1---1-1-1-|-1-1-1-1-1-1-1-1---1-1-1---1-1-1--|
|
|---------------------------------|----------------------------------|
|---------------------------------|----------------------------------|
|---------------------------------|----------------------------------|
|-------------------------0-------|-----------------0-------1--------|
|-----------------4---------------|----------------------------------|
|-1-1-1-1-1-1-1-1---1-1-1---1-1-1-|-1-1-1-1-1-1-1-1---1-1-1---1-1-1--|


|------------------|--------------------|----------------------------------|
|------------------|--------------------|----------------------------------|
|---------6--8-----|---5--8---9--8-5--8-|----------------------------------|
|-0-0-0-0-x--x-0-0-|-0-x--x-0-x--x-x--x-|----------------------------------|
|-0-0-0-0-3--5-0-0-|-0-3--5-0-6--5-3--5-|-----------------3-------1--------|
|-0-0-0-0------0-0-|-0------0-----------|-1-1-1-1-1-1-1-1---1-1-1---1-1-1--|
|
|------------------|--------------------|----------------------------------|
|---------6--8-----|---6--8---9--8-6--8-|----------------------------------|
|---------x--x-----|---x--x---x--x-x--x-|----------------------------------|
|-0-0-0-0-3--5-0-0-|-0-3--5-0-6--5-3--5-|-----------------1-------0--------|
|-0-0-0-0------0-0-|-0------0-----------|----------------------------------|
|-0-0-0-0------0-0-|-0------0-----------|-1-1-1-1-1-1-1-1---1-1-1---1-1-1--|


|---------------------------------|-----------------|--------------------|
|---------------------------------|-----------------|--------------------|
|---------------------------------|---------6-8-----|---5-8---9-8-5-8----|
|---------------------------------|-0-0-0-0-x-x-0-0-|-0-x-x-0-x-x-x-x----|
|-----------------0-------1-------|-0-0-0-0-3-5-0-0-|-0-3-5-0-6-5-3-5----|
|-1-1-1-1-1-1-1-1---1-1-1---1-1-1-|-0-0-0-0-----0-0-|-0-----0------------|
|
|---------------------------------|-----------------|--------------------|
|---------------------------------|---------6-8-----|---6-8---9-8-6-8----|
|---------------------------------|---------x-x-----|---x-x---x-x-x-x----|
|-------------------------0-------|-0-0-0-0-3-5-0-0-|-0-3-5-0-6-5-3-5----|
|-----------------3---------------|-0-0-0-0-----0-0-|-0-----0------------|
|-1-1-1-1-1-1-1-1---1-1-1---1-1-1-|-0-0-0-0-----0-0-|-0-----0------------|


|---------------------------------|---------------------------------|
|---------------------------------|---------------------------------|
|---------------------------------|---------------------------------|
|---------------------------------|---------------------------------|
|-----------------0-------1-------|-----------------1-------3-------|
|-1-1-1-1-1-1-1-1---1-1-1---1-1-1-|-1-1-1-1-1-1-1-1---1-1-1---1-1-1-|
|
|---------------------------------|---------------------------------|
|---------------------------------|---------------------------------|
|---------------------------------|---------------------------------|
|-------------------------0-------|-----------------0-------1-------|
|-----------------4---------------|---------------------------------|
|-1-1-1-1-1-1-1-1---1-1-1---1-1-1-|-1-1-1-1-1-1-1-1---1-1-1---1-1-1-|


|-----------------|-----------------|------------------------------------|
|-----------------|-----------------|------------------------------------|
|---------6-8-----|---5-8---9-8-5-8-|------------------------------------|
|-0-0-0-0-x-x-0-0-|-0-x-x-0-x-x-x-x-|------------------------------------|
|-0-0-0-0-3-5-0-0-|-0-3-5-0-6-5-3-5-|-----------------3-------1----------|
|-0-0-0-0-----0-0-|-0-----0---------|-1-1-1-1-1-1-1-1---1-1-1---1-1-1----|
|
|-----------------|-----------------|------------------------------------|
|---------6-8-----|---6-8---9-8-6-8-|------------------------------------|
|---------x-x-----|---x-x---x-x-x-x-|------------------------------------|
|-0-0-0-0-3-5-0-0-|-0-3-5-0-6-5-3-5-|-----------------1-------0----------|
|-0-0-0-0-----0-0-|-0-----0---------|------------------------------------|
|-0-0-0-0-----0-0-|-0-----0---------|-1-1-1-1-1-1-1-1---1-1-1---1-1-1----|


|---------------------------------|-----------------------------|
|---------------------------------|-----------------------------|
|---------------------------------|-----------------------------|
|---------------------------------|-----------------------------|
|-----------------1-------0-------|-0---0---0---0---3-5-0---0---|
|-1-1-1-1-1-1-1-1---1-1-1---1-1-1-|-0---0---0---0-------0---0---|
|
|---------------------------------|-----------------------------|
|---------------------------------|-----------------------------|
|---------------------------------|-----------------------------|
|-----------------0---------------|-0-0-0-0-0-0-0-0-0---0-0-0---|
|-------------------------3-------|-0-0-0-0-0-0-0-0-0---0-0-0---|
|-1-1-1-1-1-1-1-1---1-1-1---1-1-1-|-0-0-0-0-0-0-0-0-0---0-0-0---|


|----------------|----------------------------|----------------|
|----------------|----------------------------|----------------|
|----------------|----------------------------|----------------|
|----------------|----------------------------|----------------|
|--3-5-0-6-5-3-5-|-0---0---0---0---3-5-0---0--|--3-5-0-6-5-3-5-|
|------0---------|-0---0---0---0-------0---0--|------0---------|
|
|----------------|----------------------------|----------------|
|----------------|----------------------------|----------------|
|----------------|----------------------------|----------------|
|----------0-0-0-|-0-0-0-0-0-0-0-0-0---0-0-0--|----------0-0-0-|
|----------0-0-0-|-0-0-0-0-0-0-0-0-0---0-0-0--|----------0-0-0-|
|----------0-0-0-|-0-0-0-0-0-0-0-0-0---0-0-0--|----------0-0-0-|


|----------------------------|----------------|-----------------------------|
|----------------------------|----------------|-----------------------------|
|----------------------------|----------------|-----------------------------|
|----------------------------|----------------|-----------------------------|
|-0---0---0---0---3-5-0---0--|--3-5-0-6-5-3-5-|-0---0---0---0---3-5-0---0---|
|-0---0---0---0-------0---0--|------0---------|-0---0---0---0-------0---0---|
|
|----------------------------|----------------|-----------------------------|
|----------------------------|----------------|-----------------------------|
|----------------------------|----------------|-----------------------------|
|-0-0-0-0-0-0-0-0-0---0-0-0--|----------0-0-0-|-0-0-0-0-0-0-0-0-0---0-0-0---|
|-0-0-0-0-0-0-0-0-0---0-0-0--|----------0-0-0-|-0-0-0-0-0-0-0-0-0---0-0-0---|
|-0-0-0-0-0-0-0-0-0---0-0-0--|----------0-0-0-|-0-0-0-0-0-0-0-0-0---0-0-0---|


                   Q=182
|----------------|---------------------------------|
|----------------|---------------------------------|
|----------------|---------------------------------|
|----------------|---------------------------------|
|--3-5-0-6-5-3-5-|-----------------6---6-----------|
|------0---------|-1---1---5---5-----------5---5---|
|
|----------------|---------------------------------|
|----------------|---------------------------------|
|----------------|---------------------------------|
|----------0-0-0-|---------------------------------|
|----------0-0-0-|-----------------6-6---6---------|
|----------0-0-0-|-1-1---1-5-5---5---------5-5---5-|


|---------------------------------|---------------------------------|
|---------------------------------|---------------------------------|
|---------------------------------|---------------------------------|
|---------------------------------|---------------------------------|
|-----------------5---5-----------|-----------------3---3-----------|
|-0---0---4---4-----------4---4---|-1---1---5---5-----------5---5---|
|
|---------------------------------|---------------------------------|
|---------------------------------|---------------------------------|
|---------------------------------|---------------------------------|
|---------------------------------|---------------------------------|
|-----------------5-5---5---------|-----------------3-3---3---------|
|-0-0---0-4-4---4---------4-4---4-|-1-1---1-5-5---5---------5-5---5-|


|---------------------------------|---------------------------------|
|---------------------------------|---------------------------------|
|---------------------------------|---------------------------------|
|---------------------------------|---------------------------------|
|---------------------------------|-----------------6---6-----------|
|-8---8---7---7---5---5---4---4---|-1---1---5---5-----------5---5---|
|
|---------------------------------|---------------------------------|
|---------------------------------|---------------------------------|
|---------------------------------|---------------------------------|
|---------------------------------|---------------------------------|
|---------------------------------|-----------------6-6---6---------|
|-8-8---8-7-7---7-5-5---5-4-4---4-|-1-1---1-5-5---5---------5-5---5-|


|---------------------------------|----------------------|-------------------|
|---------------------------------|----------------------|-------------------|
|---------------------------------|-8-8-8-10-10-11-11-13-|-13-11-11-10-10----|
|---------------------------------|-x-x-x--x--x--x--x--x-|--x--x--x--x--x----|
|-----------------5---5-----------|-5-6-6--8--8--9--9-11-|-11--9--9--8--8----|
|-0---0---4---4-----------4---4---|----------------------|-------------------|
|
|---------------------------------|----------------------|-------------------|
|---------------------------------|-6-7-7--9--9-11-11-12-|-12-11-11--9--9----|
|---------------------------------|-x-x-x--x--x--x--x--x-|--x--x--x--x--x----|
|---------------------------------|-3-4-4--6--6--8--8--9-|--9--8--8--6--6----|
|-----------------5-5---5---------|----------------------|-------------------|
|-0-0---0-4-4---4---------4-4---4-|----------------------|-------------------|


  Q=182
|---------------------------------|---------------------------------|
|---------------------------------|---------------------------------|
|---------------------------------|---------------------------------|
|---------------------------------|---------------------------------|
|-----------------6---6-----------|-----------------5---5-----------|
|-1---1---5---5-----------5---5---|-0---0---4---4-----------4---4---|
|
|---------------------------------|---------------------------------|
|---------------------------------|---------------------------------|
|---------------------------------|---------------------------------|
|---------------------------------|---------------------------------|
|-----------------6-6---6---------|-----------------5-5---5---------|
|-1-1---1-5-5---5---------5-5---5-|-0-0---0-4-4---4---------4-4---4-|


|---------------------------------|---------------------------------|
|---------------------------------|---------------------------------|
|---------------------------------|---------------------------------|
|---------------------------------|---------------------------------|
|-----------------3---3-----------|---------------------------------|
|-1---1---5---5-----------5---5---|-8---8---7---7---5---5---4---4---|
|
|---------------------------------|---------------------------------|
|---------------------------------|---------------------------------|
|---------------------------------|---------------------------------|
|---------------------------------|---------------------------------|
|-----------------3-3---3---------|---------------------------------|
|-1-1---1-5-5---5---------5-5---5-|-8-8---8-7-7---7-5-5---5-4-4---4-|


|---------------------------------|---------------------------------|
|---------------------------------|---------------------------------|
|---------------------------------|---------------------------------|
|---------------------------------|---------------------------------|
|-----------------6---6-----------|-----------------5---5-----------|
|-1---1---5---5-----------5---5---|-0---0---4---4-----------4---4---|
|
|---------------------------------|---------------------------------|
|---------------------------------|---------------------------------|
|---------------------------------|---------------------------------|
|---------------------------------|---------------------------------|
|-----------------6-6---6---------|-----------------5-5---5---------|
|-1-1---1-5-5---5---------5-5---5-|-0-0---0-4-4---4---------4-4---4-|


                                             Q=134
|----------------------|-------------------|-------------------------|
|----------------------|-------------------|-------------------------|
|-8-8-8-10-10-11-11-13-|-13-11-11-10-10----|-------------------------|
|-x-x-x--x--x--x--x--x-|--x--x--x--x--x----|-0-0-0-0-0-0-0-0-0-0-0-0-|
|-5-6-6--8--8--9--9-11-|-11--9--9--8--8----|-0-0-0-0-0-0-0-0-0-0-0-0-|
|----------------------|-------------------|-0-0-0-0-0-0-0-0-0-0-0-0-|
|
|----------------------|-------------------|-------------------------|
|-6-7-7--9--9-11-11-12-|-12-11-11--9--9----|-------------------------|
|-x-x-x--x--x--x--x--x-|--x--x--x--x--x----|-------------------------|
|-3-4-4--6--6--8--8--9-|--9--8--8--6--6----|-0-----------------------|
|----------------------|-------------------|-0-----------------------|
|----------------------|-------------------|-0-----------------------|


|--------------------------|-------------------------|-------------------------|
|--------------------------|-------------------------|-------------------------|
|--------------------------|-------------------------|-------------------------|
|-0-0-0-(0)--0-0-0-4-5-4---|-0-0-0-0-0-0-0-0-0-0-0-0-|-0-0-0-(0)--0-0-0-4-5--7-|
|-0-0-0-(0)--0-0-0-------6-|-0-0-0-0-0-0-0-0-0-0-0-0-|-0-0-0-(0)--0-0-0--------|
|-0-0-0-(0)--0-0-0---------|-0-0-0-0-0-0-0-0-0-0-0-0-|-0-0-0-(0)--0-0-0--------|
|
|--------------------------|-------------------------|-------------------------|
|--------------------------|-------------------------|-------------------------|
|--------------------------|-------------------------|-------------------------|
|-0-0-0-(0)--0-0-0-7-8-7-5-|-0-0-0-0-0-0-0-0-0-0-0-0-|-0-0-0-(0)--0-0-0-7-8-10-|
|-0-0-0-(0)--0-0-0---------|-0-0-0-0-0-0-0-0-0-0-0-0-|-0-0-0-(0)--0-0-0--------|
|-0-0-0-(0)--0-0-0---------|-0-0-0-0-0-0-0-0-0-0-0-0-|-0-0-0-(0)--0-0-0--------|


|-------------------------|
|-------------------------|
|-------------------------|
|-0-0-0-0-0-0-0-0-0-0-0-0-|
|-0-0-0-0-0-0-0-0-0-0-0-0-|
|-0-0-0-0-0-0-0-0-0-0-0-0-|
|
|-------------------------|
|-------------------------|
|-------------------------|
|-0-0-0-0-0-0-0-0-0-0-0-0-|
|-0-0-0-0-0-0-0-0-0-0-0-0-|
|-0-0-0-0-0-0-0-0-0-0-0-0-|


|------------------------------|--------------------------|
|------------------------------|--------------------------|
|------------------------------|--------------------------|
|-0-0-0-(0)--0-0-0-------------|-0-0-0-0-0-0-0-0-0-0-0-0--|
|-0-0-0-(0)--0-0-0--9-10--9--6-|-0-0-0-0-0-0-0-0-0-0-0-0--|
|-0-0-0-(0)--0-0-0-------------|-0-0-0-0-0-0-0-0-0-0-0-0--|
|
|------------------------------|--------------------------|
|------------------------------|--------------------------|
|------------------------------|--------------------------|
|-0-0-0-(0)--0-0-0-------------|-0-0-0-0-0-0-0-0-0-0-0-0--|
|-0-0-0-(0)--0-0-0-12-13-12-10-|-0-0-0-0-0-0-0-0-0-0-0-0--|
|-0-0-0-(0)--0-0-0-------------|-0-0-0-0-0-0-0-0-0-0-0-0--|


|---------------------------|-------------------------|
|---------------------------|-------------------------|
|---------------------------|-------------------------|
|-0-0-0-(0)--0-0-0--4--5--7-|-0-0-0-0-0-0-0-0-0-0-0-0-|
|-0-0-0-(0)--0-0-0----------|-0-0-0-0-0-0-0-0-0-0-0-0-|
|-0-0-0-(0)--0-0-0----------|-0-0-0-0-0-0-0-0-0-0-0-0-|
|
|---------------------------|-------------------------|
|---------------------------|-------------------------|
|---------------------------|-------------------------|
|-0-0-0-(0)--0-0-0----------|-0-0-0-0-0-0-0-0-0-0-0-0-|
|-0-0-0-(0)--0-0-0-12-13-15-|-0-0-0-0-0-0-0-0-0-0-0-0-|
|-0-0-0-(0)--0-0-0----------|-0-0-0-0-0-0-0-0-0-0-0-0-|


|------------------------------|
|------------------------------|
|------------------------------|
|-0-0-0-(0)--0-0-0-------------|
|-0-0-0-(0)--0-0-0--9-10--9--6-|
|-0-0-0-(0)--0-0-0-------------|
|
|------------------------------|
|------------------------------|
|------------------------------|
|-0-0-0-(0)--0-0-0-------------|
|-0-0-0-(0)--0-0-0-12-13-12-10-|
|-0-0-0-(0)--0-0-0-------------|

.:|SOLO|:.

  Gtrs I, II
|--------------------------------------------|
|--------------------------------------------|
|--------------------------------------------|
|--0-----------------------------------------|
|--0-----------------------------------------|
|--0-----------------------------------------|
|
| Gtr III
|-15h17p15-14-15-14--------------------14----|
|-------------------16-15-15-15--15-16----16-|
|--------------------------------------------|
|--------------------------------------------|
|--------------------------------------------|
|--------------------------------------------|


|----------------------------------------------------|
|----------------------------------------------------|
|----------------------------------------------------|
|--1-------------------------------------------------|
|--1-------------------------------------------------|
|--1-------------------------------------------------|
|
|-14-15-17-15-14h15p14----14-------------------------|
|----------------------16----16-15-13----------------|
|-------------------------------------15-14-12-11-12-|
|----------------------------------------------------|
|----------------------------------------------------|
|----------------------------------------------------|


|-------------------------------|------------------------------------------------|
|-------------------------------|------------------------------------------------|
|-------------------------------|------------------------------------------------|
|--4----------------------------|--5---------------------5-5-(5)-------5---------|
|--4----------------------------|--5---------------------5-5-(5)-------5---------|
|--4----------------------------|--5---------------------5-5-(5)-------5---------|
|
|-------------------------------|------------------------------------------------|
|-------------------------------|------------------------------------------------|
|-11---11h12p11-----------------|------------------------------------------------|
|---------------13-12-10-12-13--|-12h13p10-12--12h13p10-12---12h13p10-12---------|
|-------------------------------|------------------------------------------------|
|-------------------------------|------------------------------------------------|


|-----------------------------------------|
|-----------------------------------------|
|-----------------------------------------|
|--0--------------------------------------|
|--0--------------------------------------|
|--0--------------------------------------|
|
|-----------------------------------------|
|-----------------------------------------|
|-------------------------------11-12-11--|
|----------------10-12-13-12-13-----------|
|-13-12-10-12-13--------------------------|
|-----------------------------------------|


|---------------------------------|
|---------------------------------|
|---------------------------------|
|--1------------------------------|
|--1------------------------------|
|--1------------------------------|
|
|---------------------------------|
|---------------------------------|
|-11h12p11----11------------------|
|----------13----13-12-10---12-13-|
|---------------------------------|
|---------------------------------|
|
| Gtr IV
|---------------------------------|
|---------------------------------|
|---------------------------------|
|---------------------------------|
|---------------------------------|
|---------------------------------|


|----------------------------------------------------------|
|----------------------------------------------------------|
|----------------------------------------------------------|
|--4-------------------------------------------------------|
|--4-------------------------------------------------------|
|--4-------------------------------------------------------|
|
|-22h23p22-19----------22h23p22-19----------22h23p22-19----|
|-------------23-21-23-------------23-21-23-------------23-|
|----------------------------------------------------------|
|----------------------------------------------------------|
|----------------------------------------------------------|
|----------------------------------------------------------|
|
|----------------------------------------------------------|
|-19h20p19-16----------19h20p19-16----------19h20p19-16----|
|-------------19-16-19-------------19-16-19-------------19-|
|----------------------------------------------------------|
|----------------------------------------------------------|
|----------------------------------------------------------|


|------------------------------------------|
|------------------------------------------|
|------------------------------------------|
|--5--------------------------0--0--(0)--0-|
|--5--------------------------0--0--(0)--0-|
|--5--------------------------0--0--(0)--0-|
|
|-------22h23p22-19----------22-23-(23)-24-|
|-21-23-------------23-21-23---------------|
|------------------------------------------|
|------------------------------------------|
|------------------------------------------|
|------------------------------------------|
|
|----------------------------14-15-(15)-16-|
|-------19h20p19-16------------------------|
|-16-19-------------19-16-19---------------|
|------------------------------------------|
|------------------------------------------|
|------------------------------------------|


|-------------------------------------|
|-------------------------------------|
|-------------------------------------|
|-0-----------------------------------|
|-0-----------------------------------|
|-0-----------------------------------|
|
|-------------------------------------|
|-------------------------------------|
|-7-7-11-7-8-7-11-7-8-7-11-7-8-7-11-7-|
|-------------------------------------|
|-------------------------------------|
|-------------------------------------|
|
|-------------------------------------|
|-------------------------------------|
|-------------------------------------|
|-------------------------------------|
|-------------------------------------|
|-------------------------------------|


|-----------------------------------------|
|-----------------------------------------|
|-----------------------------------------|
|--1--------------------------------------|
|--1--------------------------------------|
|--1--------------------------------------|
|
|-----------------------------------------|
|-----------------------------------------|
|-11-8-12-8-11-8-12-8-11-8-12-8-11-8-12-8-|
|-----------------------------------------|
|-----------------------------------------|
|-----------------------------------------|


|-------------------------------------------------|
|-------------------------------------------------|
|-------------------------------------------------|
|--4----------------------------------------------|
|--4----------------------------------------------|
|--4----------------------------------------------|
|
|-------------------------------------------------|
|-------------------------------------------------|
|-12-11-14-11-12-11-14-11-12-11-14-11-12-11-14-11-|
|-------------------------------------------------|
|-------------------------------------------------|
|-------------------------------------------------|


|-------------------------------------|
|-------------------------------------|
|-------------------------------------|
|--5-----------------------5--5-(5)-5-|
|--5-----------------------5--5-(5)-5-|
|--5-----------------------5--5-(5)-5-|
|
|-------------------------------------|
|-------------------------------------|
|-14-12-15-12-14-12-15-12-15-14-12----|
|-------------------------------------|
|-------------------------------------|
|-------------------------------------|


|--------------------|---------------------|----------------|
|--------------------|---------------------|----------------|
|--------------------|---------------------|----------------|
|--0-----------------|--1------------------|--4-------------|
|--0-----------------|--1------------------|--4-------------|
|--0-----------------|--1------------------|--4-------------|
|
|                                                      ~~
|--------------------|---------------------|----------------|
|--------------------|---------------------|----------------|
|-11--12-12-11-------|----------------12---|-11b12r===11----|
|--------------10----|-12-12-13-12-13------|----------------|
|--------------------|---------------------|----------------|
|--------------------|---------------------|----------------|


                            Q=190
  Gtr I
|-------------------------|-----------------------------|
|-------------------------|-----------------------------|
|-------------------------|-----------------------------|
|--5-----------0-0--(0)-0-|-----------------------------|
|--5-----------0-0--(0)-0-|--------5-5--5---------------|
|--5-----------0-0--(0)-0-|-0-0--0--------7-7--7-0-0--0-|
|
| Gtr II
|-------------------------|-----------------------------|
|-------------------------|-----------------------------|
|-------------------------|-----------------------------|
|--5-----------0-0--(0)-0-|-0---------------------------|
|--5-----------0-0--(0)-0-|-0---------------------------|
|--5-----------0-0--(0)-0-|-0---------------------------|
|
| Gtr III
|                    ~~~~
|-------------------------|-----------------------------|
|-------------------------|-----------------------------|
|-15-14-12-11-12---[12]---|-----------------------------|
|-------------------------|-----------------------------|
|-------------------------|-----------------------------|
|-------------------------|-----------------------------|


|-------------------------------|------------------------------|
|-------------------------------|------------------------------|
|-------------------------------|------------------------------|
|-------------------------------|------------------------------|
|--4--4--4----------------------|---------5-5--5---------------|
|----------7-7--7-3-3--3-7-7--7-|-0-0---0--------7-7--7-0-0--0-|
|
|-------------------------------|------------------------------|
|-------------------------------|------------------------------|
|-------------------------------|------------------------------|
|-(0)---------------------------|-0-0-0---0--------------------|
|-(0)---------------------------|-0-0-0---0--------------------|
|-(0)---------------------------|-0-0-0---0--------------------|


|-----------------------------|-----------------------------|
|-----------------------------|-----------------------------|
|-----------------------------|-----------------------------|
|-----------------------------|-----------------------------|
|-4-4--4-5-5--5-7-7--7-8-8--8-|--------5-5--5---------------|
|-----------------------------|-0-0--0--------7-7--7-0-0--0-|
|
|-----------------------------|-----------------------------|
|-----------------------------|-----------------------------|
|-----------------------------|-----------------------------|
|-----------------------------|-0---------------------------|
|-----------------------------|-0---------------------------|
|-----------------------------|-0---------------------------|


|-------------------------------|--------------------------------|
|-------------------------------|--------------------------------|
|-------------------------------|--------------------------------|
|-------------------------------|--------------------------------|
|--4--4--4----------------------|---------5-5---5----------------|
|----------7-7--7-3-3--3-7-7--7-|-0-0---0---------7-7--7-0-0---0-|
|
|-------------------------------|--------------------------------|
|-------------------------------|--------------------------------|
|-------------------------------|--------------------------------|
|-(0)---------------------------|-0-0-0-------0-0-0------0-0-0---|
|-(0)---------------------------|-0-0-0-------0-0-0------0-0-0---|
|-(0)---------------------------|-0-0-0-------0-0-0------0-0-0---|


|-------------------------|---------------------------------|
|-------------------------|---------------------------------|
|-------------------------|---------------------------------|
|---------------0-0-0-0-0-|---------------------------------|
|-4-4--4--------0-0-0-0-0-|---------5-5---5-----------------|
|--------7-7--7-0-0-0-0-0-|-0-0---0---------7-7---7-0-0---0-|
|
|-------------------------|---------------------------------|
|-------------------------|---------------------------------|
|-------------------------|---------------------------------|
|---------------0-0-0-0-0-|-0-0-0---0-0-0---0-0-0---0-0-0---|
|---------------0-0-0-0-0-|-0-0-0---0-0-0---0-0-0---0-0-0---|
|---------------0-0-0-0-0-|-0-0-0---0-0-0---0-0-0---0-0-0---|


|---------------------------------|----------------------------------|
|---------------------------------|----------------------------------|
|---------------------------------|----------------------------------|
|---------------------------------|----------------------------------|
|-4-4---4-------------------------|----------5--5---5----------------|
|---------7-7---7-3-3---3-7-7---7-|-0-0---0-----------7-7--7-0-0---0-|
|
|---------------------------------|----------------------------------|
|---------------------------------|----------------------------------|
|---------------------------------|----------------------------------|
|-0-0-0---0-0-0---0-0-0---0-0-0---|-0-0-0---(0)---0-0-0------0-0-0---|
|-0-0-0---0-0-0---0-0-0---0-0-0---|-0-0-0---(0)---0-0-0------0-0-0---|
|-0-0-0---0-0-0---0-0-0---0-0-0---|-0-0-0---(0)---0-0-0------0-0-0---|


|-------------------------------|---------------------------------|
|-------------------------------|---------------------------------|
|-------------------------------|---------------------------------|
|-------------------------------|---------------------------------|
|-4-4--4-5-5--5-7-7---7-8-8---8-|---------5-5---5-----------------|
|-------------------------------|-0-0---0---------7-7---7-0-0---0-|
|
|-------------------------------|---------------------------------|
|-------------------------------|---------------------------------|
|-------------------------------|---------------------------------|
|---------------0-0-0---0---0---|-0-0-0---0-0-0---0-0-0---0-0-0---|
|---------------0-0-0---0---0---|-0-0-0---0-0-0---0-0-0---0-0-0---|
|---------------0-0-0---0---0---|-0-0-0---0-0-0---0-0-0---0-0-0---|


|---------------------------------|----------------------------------|
|---------------------------------|----------------------------------|
|---------------------------------|----------------------------------|
|---------------------------------|----------------------------------|
|-4-4---4-------------------------|----------5--5---5----------------|
|---------7-7---7-3-3---3-7-7---7-|-0-0---0-----------7-7--7-0-0---0-|
|
|---------------------------------|----------------------------------|
|---------------------------------|----------------------------------|
|---------------------------------|----------------------------------|
|-0-0-0---0-0-0---0-0-0---0-0-0---|-0-0-0---(0)---0-0-0------0-0-0---|
|-0-0-0---0-0-0---0-0-0---0-0-0---|-0-0-0---(0)---0-0-0------0-0-0---|
|-0-0-0---0-0-0---0-0-0---0-0-0---|-0-0-0---(0)---0-0-0------0-0-0---|


|-------------------------|---------------------------------|
|-------------------------|---------------------------------|
|-------------------------|---------------------------------|
|---------------0-0-0-0-0-|---------------------------------|
|-4-4--4--------0-0-0-0-0-|---------5-5---5-----------------|
|--------7-7--7-0-0-0-0-0-|-0-0---0---------7-7---7-0-0---0-|
|
|-------------------------|---------------------------------|
|-------------------------|---------------------------------|
|-------------------------|---------------------------------|
|---------------0-0-0-0-0-|-0-0-0---0-0-0---0-0-0---0-0-0---|
|---------------0-0-0-0-0-|-0-0-0---0-0-0---0-0-0---0-0-0---|
|---------------0-0-0-0-0-|-0-0-0---0-0-0---0-0-0---0-0-0---|


|---------------------------------|----------------------------------|
|---------------------------------|----------------------------------|
|---------------------------------|----------------------------------|
|---------------------------------|----------------------------------|
|-4-4---4-------------------------|----------5--5---5----------------|
|---------7-7---7-3-3---3-7-7---7-|-0-0---0-----------7-7--7-0-0---0-|
|
|---------------------------------|----------------------------------|
|---------------------------------|----------------------------------|
|---------------------------------|----------------------------------|
|-0-0-0---0-0-0---0-0-0---0-0-0---|-0-0-0---(0)---0-0-0------0-0-0---|
|-0-0-0---0-0-0---0-0-0---0-0-0---|-0-0-0---(0)---0-0-0------0-0-0---|
|-0-0-0---0-0-0---0-0-0---0-0-0---|-0-0-0---(0)---0-0-0------0-0-0---|


|-------------------------------|---------------------------------|
|-------------------------------|---------------------------------|
|-------------------------------|---------------------------------|
|-------------------------------|---------------------------------|
|-4-4--4-5-5--5-7-7---7-8-8---8-|---------5-5---5-----------------|
|-------------------------------|-0-0---0---------7-7---7-0-0---0-|
|
|-------------------------------|---------------------------------|
|-------------------------------|---------------------------------|
|-------------------------------|---------------------------------|
|---------------0-0-0---0---0---|-0-0-0---0-0-0---0-0-0---0-0-0---|
|---------------0-0-0---0---0---|-0-0-0---0-0-0---0-0-0---0-0-0---|
|---------------0-0-0---0---0---|-0-0-0---0-0-0---0-0-0---0-0-0---|


|---------------------------------|-------------------------|---------------*|
|---------------------------------|-------------------------|---------------*|
|---------------------------------|-------------------------|---------------*|
|---------------------------------|-0-0-0-(0)--0-0-0--0-0-0-|-----0-0-0-0-0-*|
|-4-4---4-------------------------|-0-0-0-(0)--0-0-0--0-0-0-|-----0-0-0-0-0-*|
|---------7-7---7-3-3---3-7-7---7-|-0-0-0-(0)--0-0-0--0-0-0-|-----0-0-0-0-0-*|
|
|---------------------------------|-------------------------|---------------*|
|---------------------------------|-------------------------|---------------*|
|---------------------------------|-------------------------|---------------*|
|-0-0-0---0-0-0---0-0-0---0-0-0---|-0-0-0-(0)--0-0-0--0-0-0-|-----0-0-0-0-0-*|
|-0-0-0---0-0-0---0-0-0---0-0-0---|-0-0-0-(0)--0-0-0--0-0-0-|-----0-0-0-0-0-*|
|-0-0-0---0-0-0---0-0-0---0-0-0---|-0-0-0-(0)--0-0-0--0-0-0-|-----0-0-0-0-0-*|


______________________________________________________________
____________________________________________________
____________________________________________________
___________________Force Fed Trauma_________________
____________________________________________________
____________________________________________________


Gtr I (B F# B E G# C#) - 'Guitar I'
Gtr II (B F# B E G# C#) - 'Guitar II'

  Q=138
 4/4
  Gtr I
         PM|
|------------|-----------|-----------------|-------------------|
|------------|-----------|-----------------|-------------------|
|-7----------|-----------|-2---------------|-(2)---------------|
|-7----------|-8----7----|-0---------------|-(0)---------------|
|-5------0-0-|-8----7----|-0---------------|-(0)---------------|
|--------0-0-|-8----7----|-0---------------|-(0)---------------|
|
| Gtr II
|        PM|
|------------|-----------|-----------------|-------------------|
|------------|-----------|-----------------|-------------------|
|-7----------|-----------|------11-12-12-7-|--8--11-11-8-7-8-7-|
|-7----------|-8----7----|-0---------------|-------------------|
|-5------0-0-|-8----7----|-0---------------|-------------------|
|--------0-0-|-8----7----|-0---------------|-------------------|


           PM|
|--------------|-----------|------------------|------------------------|
|--------------|-----------|------------------|------------------------|
|--7-----------|-----------|-2----------------|-(2)--------------------|
|--7-----------|-8----7----|-0----------------|-(0)--------------------|
|--5-------0-0-|-8----7----|-0----------------|-(0)--------------------|
|----------0-0-|-8----7----|-0----------------|-(0)--------------------|
|
|          PM|
|--------------|-----------|------------------|------------------------|
|--------------|-----------|------------------|------------------------|
|-(7)----------|-----------|------10-11-14-12-|-12--15-15-14-14S15S14--|
|--7-----------|-8----7----|-0----------------|------------------------|
|--5-------0-0-|-8----7----|-0----------------|------------------------|
|----------0-0-|-8----7----|-0----------------|------------------------|


           PM|
||-------------|-----------|-----------------|---------------------|
||o------------|-----------|-----------------|---------------------|
||--7----------|-----------|-2---------------|-(2)-----------------|
||--7----------|-8----7----|-0---------------|-(0)-----------------|
||o-5------0-0-|-8----7----|-0---------------|-(0)-----------------|
||---------0-0-|-8----7----|-0---------------|-(0)-----------------|
|
|          PM|
||-------------|-----------|-----------------|---------------------|
||o------------|-----------|------10S11-11-7-|--8--10-10-8-7-8-7---|
||--7----------|-----------|------11S12-12-7-|--8--11-11-8-7-8-7---|
||--7----------|-8----7----|-0---------------|---------------------|
||o-5------0-0-|-8----7----|-0---------------|---------------------|
||---------0-0-|-8----7----|-0---------------|---------------------|


         PM|
|------------|-----------|------------------|-------------------------||
|------------|-----------|------------------|------------------------o||
|-7----------|-----------|-2----------------|-(2)---------------------||
|-7----------|-8----7----|-0----------------|-(0)---------------------||
|-5------0-0-|-8----7----|-0----------------|-(0)--------------------o||
|--------0-0-|-8----7----|-0----------------|-(0)---------------------||
|
|        PM|
|------------|-----------|------------------|-------------------------||
|------------|-----------|-------9-10-13-11-|-11--14-14-13-13-14-13--o||
|-7----------|-----------|------10-11-14-12-|-12--15-15-14-14-15-14---||
|-7----------|-8----7----|-0----------------|-------------------------||
|-5------0-0-|-8----7----|-0----------------|------------------------o||
|--------0-0-|-8----7----|-0----------------|-------------------------||


|---------------------------------|-------------------------------------|
|---------------------------------|-------------------------------------|
|---------------------------------|-------------------------------------|
|---------------------------------|-------------------------------------|
|-----8-8-7-7-5-5-5-5-4-4-5-5-7-7-|-----8-8-7-7-5-5-10-10-8-8-7-7-8-8---|
|-0-0-----------------------------|-0-0---------------------------------|
|
| PM--------------------------------------------------------------|
|---------------------------------|-------------------------------------|
|---------------------------------|-------------------------------------|
|---------------------------------|-------------------------------------|
|---------------------------------|-------------------------------------|
|-0---------------------------0---|-0----------------0----0---0---0-----|
|-0---------------------------0---|-0----------------0----0---0---0-----|


|---------------------------------|-----------|
|---------------------------------|-----------|
|---------------------------------|-----------|
|---------------------------------|-3----2----|
|-----8-8-7-7-5-5-5-5-4-4-5-5-7-7-|-3----2----|
|-0-0-----------------------------|-3----2----|
|
| PM--------------------------|
|---------------------------------|-----------|
|---------------------------------|-----------|
|---------------------------------|-----------|
|---------------------------------|-3----2----|
|-0---------------------------0---|-3----2----|
|-0---------------------------0---|-3----2----|


||------------------------------------|
||o-----------------------------------|
||------------------------------------|
||------------------------------------|
||o-----8-8-7-7-5-5-5-5-4-4-5-5-7-7---|
||--0-0-------------------------------|
|
||------------------------------------|
||o-----------------------------------|
||------------------------------------|
||------------------------------------|
||o-----5-5-4-4-2-2-2-2-1-1-2-2-4-4---|
||--0-0-------------------------------|


|-----------------------------------|
|-----------------------------------|
|-----------------------------------|
|-----------------------------------|
|-----8-8-7-7-5-5-10-10-8-8-7-7-8-8-|
|-0-0-------------------------------|
|
|-----------------------------------|
|-----------------------------------|
|-----------------------------------|
|-----------------------------------|
|-----5-5-4-4-2-2--7--7-5-5-4-4-5-5-|
|-0-0-------------------------------|


|---------------------------------|-----------------------------||
|---------------------------------|----------------------------o||
|---------------------------------|-----------------------------||
|---------------------------------|-----------------------------||
|-----8-8-7-7-5-5-5-5-4-4-5-5-7-7-|-3-3-5-5-7-8-2-2-4-4-5-7----o||
|-0-0-----------------------------|-3-3---------2-2-------------||
|
|---------------------------------|-----------------------------||
|---------------------------------|----------------------------o||
|---------------------------------|-----------------------------||
|---------------------------------|-----------------------------||
|-----5-5-4-4-2-2-2-2-1-1-2-2-4-4-|-3-3-2-2-4-5-2-2-1-1-2-4----o||
|-0-0-----------------------------|-3-3---------2-2-------------||


  Gtrs I, II
|-------------------------------|
|-------------------------------|
|-------------------------------|
|-------------------------------|
|---------------8-----8-----7---|
|-0-0-0-0-0-0-0---0-0---0-0---0-|


|-------------------------------|-------------------------------|
|-------------------------------|-------------------------------|
|-------------------------------|-------------------------------|
|-------------------------------|-------------------------------|
|---------------8-----8-----4-7-|---------------8-----8-----7---|
|-0-0-0-0-0-0-0---0-0---0-0-----|-0-0-0-0-0-0-0---0-0---0-0---0-|


  Gtr I
|---------------------------------|----------------------------------|
|---------------------------------|----------------------------------|
|---------------------------------|----------------------------------|
|---------------------------------|----------------------------------|
|-5-5-5-5-5-5-7-7-8-8-8-8-7-7-7-7-|----------------8------8------7---|
|---------------------------------|-0-0-0-0-0-0-0----0-0----0-0----0-|
|
| Gtr II
|---------------------------------|----------------------------------|
|---------------------------------|----------------------------------|
|---------------------------------|----------------------------------|
|---------------------------------|----------------------------------|
|-2-2-2-2-2-2-4-4-5-5-5-5-4-4-4-4-|---------------12-----12-----10---|
|---------------------------------|-0-0-0-0-0-0-0----0-0----0-0----0-|


|------------------------------------|
|------------------------------------|
|------------------------------------|
|------------------------------------|
|----------------8------8------4-7---|
|-0-0-0-0-0-0-0----0-0----0-0--------|
|
|------------------------------------|
|------------------------------------|
|------------------------------------|
|------------------------------------|
|---------------13-----13-----12-----|
|-0-0-0-0-0-0-0----0-0----0-0----0---|


|----------------------------------|------------------------------------|
|----------------------------------|------------------------------------|
|----------------------------------|------------------------------------|
|----------------------------------|------------------------------------|
|----------------8------8------7---|-5-5-5-5-5-5-7-7-8-8-8-8-7-7-7-7----|
|-0-0-0-0-0-0-0----0-0----0-0----0-|------------------------------------|
|
|----------------------------------|------------------------------------|
|----------------------------------|------------------------------------|
|----------------------------------|------------------------------------|
|----------------------------------|------------------------------------|
|---------------12-----12-----10---|-2-2-2-2-2-2-4-4-5-5-5-5-4-4-4-4----|
|-0-0-0-0-0-0-0----0-0----0-0----0-|------------------------------------|


||--------------------|---------------------|
||o-------------------|---------------------|
||--------------------|---------------------|
||--------------------|---------------------|
||o-----7-5------8-7--|-----10-8------7-4-5-|
||--0-0------0-0------|-0-0-------0-0-------|
|
||--------------------|---------------------|
||o-------------------|---------------------|
||--------------------|---------------------|
||--------------------|---------------------|
||o-----7-5------8-7--|-----10-8------7-4-5-|
||--0-0------0-0------|-0-0-------0-0-------|


                      1.
|-------------------|---------------------------------------||
|-------------------|--------------------------------------o||
|-------------------|---------------------------------------||
|-------------------|---------------------------------------||
|-----7-5------8-7--|-----7-7-8-8-12-12-10-10-8-8-7-7-8-8--o||
|-0-0------0-0------|-0-0-----------------------------------||
|
|-------------------|---------------------------------------||
|-------------------|--------------------------------------o||
|-------------------|---------------------------------------||
|-------------------|---------------------------------------||
|-----7-5------8-7--|-----4-4-5-5--8--8--7--7-5-5-4-4-5-5--o||
|-0-0------0-0------|-0-0-----------------------------------||


  2.
|---------------------------------||----------------------------------|
|---------------------------------||o---------------------------------|
|---------------------------------||----------------------------------|
|---------------------------------||----------------------------------|
|-----4-4-5-5-8-8-----4-4-5-5-7-7-||o-----8-8-7-7-5-5-5-5-4-4-5-5-7-7-|
|-0-0-------------0-0-------------||--0-0-----------------------------|
|
|---------------------------------||----------------------------------|
|---------------------------------||o---------------------------------|
|---------------------------------||----------------------------------|
|---------------------------------||----------------------------------|
|-----1-1-2-2-5-5-----1-1-2-2-4-4-||o-----5-5-4-4-2-2-2-2-1-1-2-2-4-4-|
|-0-0-------------0-0-------------||--0-0-----------------------------|


|-----------------------------------|
|-----------------------------------|
|-----------------------------------|
|-----------------------------------|
|-----8-8-7-7-5-5-10-10-8-8-7-7-8-8-|
|-0-0-------------------------------|
|
|-----------------------------------|
|-----------------------------------|
|-----------------------------------|
|-----------------------------------|
|-----5-5-4-4-2-2--7--7-5-5-4-4-5-5-|
|-0-0-------------------------------|


|---------------------------------|
|---------------------------------|
|---------------------------------|
|---------------------------------|
|-----8-8-7-7-5-5-5-5-4-4-5-5-7-7-|
|-0-0-----------------------------|
|
|---------------------------------|
|---------------------------------|
|---------------------------------|
|---------------------------------|
|-----5-5-4-4-2-2-2-2-1-1-2-2-4-4-|
|-0-0-----------------------------|


|--------------------------||---------------------------------|
|-------------------------o||---------------------------------|
|--------------------------||---------------------------------|
|--------------------------||---------------------------------|
|-3-3-5-5-7-8-2-2-4-4-5-7-o||---------------8-----8-----7-----|
|-3-3---------2-2----------||-0-0-0-0-0-0-0---0-0---0-0---0---|
|
|--------------------------||---------------------------------|
|-------------------------o||---------------------------------|
|--------------------------||---------------------------------|
|--------------------------||---------------------------------|
|-3-3-2-2-4-5-2-2-1-1-2-4-o||---------------8-----8-----7-----|
|-3-3---------2-2----------||-0-0-0-0-0-0-0---0-0---0-0---0---|


|-------------------------------|-------------------------------|
|-------------------------------|-------------------------------|
|-------------------------------|-------------------------------|
|-------------------------------|-------------------------------|
|---------------8-----8-----4-7-|---------------8-----8-----7---|
|-0-0-0-0-0-0-0---0-0---0-0-----|-0-0-0-0-0-0-0---0-0---0-0---0-|
|
|-------------------------------|-------------------------------|
|-------------------------------|-------------------------------|
|-------------------------------|-------------------------------|
|-------------------------------|-------------------------------|
|---------------8-----8-----4-7-|---------------8-----8-----7---|
|-0-0-0-0-0-0-0---0-0---0-0-----|-0-0-0-0-0-0-0---0-0---0-0---0-|


|-----------------------------------|
|-----------------------------------|
|-----------------------------------|
|-----------------------------------|
|-5-5-5-5-5-5-7-7-8-8-8-8-7-7-7-7---|
|-----------------------------------|
|
|-----------------------------------|
|-----------------------------------|
|-----------------------------------|
|-----------------------------------|
|-2-2-2-2-2-2-4-4-5-5-5-5-4-4-4-4---|
|-----------------------------------|


|----------------------------------|
|----------------------------------|
|----------------------------------|
|----------------------------------|
|----------------8------8------7---|
|-0-0-0-0-0-0-0----0-0----0-0----0-|
|
|----------------------------------|
|----------------------------------|
|----------------------------------|
|----------------------------------|
|---------------12-----12-----10---|
|-0-0-0-0-0-0-0----0-0----0-0----0-|


|----------------------------------|----------------------------------|
|----------------------------------|----------------------------------|
|----------------------------------|----------------------------------|
|----------------------------------|----------------------------------|
|----------------8------8------4-7-|----------------8------8------7---|
|-0-0-0-0-0-0-0----0-0----0-0------|-0-0-0-0-0-0-0----0-0----0-0----0-|
|
|----------------------------------|----------------------------------|
|----------------------------------|----------------------------------|
|----------------------------------|----------------------------------|
|----------------------------------|----------------------------------|
|---------------13-----13-----12---|---------------12-----12-----10---|
|-0-0-0-0-0-0-0----0-0----0-0----0-|-0-0-0-0-0-0-0----0-0----0-0----0-|


|---------------------------------|
|---------------------------------|
|---------------------------------|
|---------------------------------|
|-5-5-5-5-5-5-7-7-8-8-8-8-7-7-7-7-|
|---------------------------------|
|
|---------------------------------|
|---------------------------------|
|---------------------------------|
|---------------------------------|
|-2-2-2-2-2-2-4-4-5-5-5-5-4-4-4-4-|
|---------------------------------|


|----------------------------|-------------------------------|
|----------------------------|-------------------------------|
|----------------------------|-------------------------------|
|-0-0------------------------|-0-0---------------------------|
|-0-0-8-----7-----10-8-7-8-7-|-0-0-8-----7-----5-5-7-7-8-8---|
|-0-0---0-0---0-0------------|-0-0---0-0---0-0---------------|
|
|----------------------------|-------------------------------|
|----------------------------|-------------------------------|
|----------------------------|-------------------------------|
|----------------------------|-------------------------------|
|-0-0------------------------|-0-0-------------2-2-4-4-5-5---|
|-0-0------------------------|-0-0---------------------------|


                                    PM--------------------|
|-----------------------------|-----------------------------|
|-----------------------------|-----------------------------|
|-----------------------------|-----------------------------|
|-2-2-------------------------|-3-3-------------------------|
|-2-2-5-----4-----8-7-5-7-5---|-3-3-5-----4-----4-4-5-5-7-7-|
|-2-2---0-0---0-0-------------|-3-3---0-0---0-0-------------|
|
|     PM--------------------|       PM--------|
|-----------------------------|-----------------------------|
|-----------------------------|-----------------------------|
|-----------------------------|-----------------------------|
|-2-2-------------------------|-3-3-------------------------|
|-2-2-2-2-2-2-2-2-2-2-2-2-2-2-|-3-3-3-3-3-3-3-3-1-1-2-2-4-4-|
|-2-2-2-2-2-2-2-2-2-2-2-2-2-2-|-3-3-3-3-3-3-3-3-------------|


||-------------------------------|
||o------------------------------|
||-------------------------------|
||--0-0--------------------------|
||o-0-0-8-----7-----10-8-7-8-7---|
||--0-0---0-0---0-0--------------|
|
|       PM---------------------|
||-------------------------------|
||o------------------------------|
||-------------------------------|
||--0-0--------------------------|
||o-0-0-0-0-0-0-0-0--0-0-0-0-0-0-|
||--0-0-0-0-0-0-0-0--0-0-0-0-0-0-|


|-----------------------------|-----------------------------|
|-----------------------------|-----------------------------|
|-----------------------------|-----------------------------|
|-0-0-------------------------|-2-2-------------------------|
|-0-0-8-----7-----5-5-7-7-8-8-|-2-2-5-----4-----8-7-5-7-5---|
|-0-0---0-0---0-0-------------|-2-2---0-0---0-0-------------|
|
|     PM--------|                   PM--------------------|
|-----------------------------|-----------------------------|
|-----------------------------|-----------------------------|
|-----------------------------|-----------------------------|
|-0-0-------------------------|-2-2-------------------------|
|-0-0-0-0-0-0-0-0-2-2-4-4-5-5-|-2-2-2-2-2-2-2-2-2-2-2-2-2-2-|
|-0-0-0-0-0-0-0-0-------------|-2-2-2-2-2-2-2-2-2-2-2-2-2-2-|


      PM--------------------|
                               3x
|------------------------------||
|-----------------------------o||
|------------------------------||
|-3-3--------------------------||
|-3-3-5-----4-----4-4-5-5-7-7-o||
|-3-3---0-0---0-0--------------||
|
|     PM--------|
|                              3x
|------------------------------||
|-----------------------------o||
|------------------------------||
|-3-3--------------------------||
|-3-3-3-3-3-3-3-3-1-1-2-2-4-4-o||
|-3-3-3-3-3-3-3-3--------------||


              Q=135
---------------------------------------------------------------------|
|---------||------------------------------|-------------------------------||
|---------||o-----------------------------|------------------------------o||
|---------||------------------------------|-------------------------------||
|---------||--0-----0-0-----0-----0-0-----|-0-----0-0-----0-----0-0-------||
|---------||o-0-----0-0-----0-----0-0-----|-0-----0-0-----0-----0-0------o||
|---------||--0-----0-0-----0-----0-0-----|-0-----0-0-----0-----0-0-------||
|
|             PM-------------------------------------------------------|
|---------||------------------------------|-------------------------------||
|---------||o-----------------------------|------------------------------o||
|---------||------------------------------|-------------------------------||
|---------||-----0-------0-----0-------0--|----0-------0-----0-------0----||
|---------||o----0-------0-----0-------0--|----0-------0-----0-------0---o||
|---------||-----0-------0-----0-------0--|----0-------0-----0-------0----||


---------------------------------------------------------M
|-----------------------------|-----------------------------|
|-----------------------------|-----------------------------|
|-----------------------------|-----------------------------|
|-0-----0-0-----0-----0-0-----|-0-----0-0-----0-----0-0-----|
|-0-----0-0-----0-----0-0-----|-0-----0-0-----0-----0-0-----|
|-0-----0-0-----0-----0-0-----|-0-----0-0-----0-----0-0-----|
|
| PM                                                       PM
|-----------------------------|-----------------------------|
|-----------------------------|-----------------------------|
|-----------------------------|-----------------------------|
|----0-------0-----0-------0--|----0-------0-----0-------0--|
|----0-------0-----0-------0--|----0-------0-----0-------0--|
|----0-------0-----0-------0--|----0-------0-----0-------0--|


---------------------------------------------------------|
|-----------------------------|-----------------------------|
|-----------------------------|-----------------------------|
|-----------------------------|-----------------------------|
|-0-----0-0-----0-----0-0-----|-0-----0-0-----0-----0-0-----|
|-0-----0-0-----0-----0-0-----|-0-----0-0-----0-----0-0-----|
|-0-----0-0-----0-----0-0-----|-0-----0-0-----0-----0-0-----|
|
| PM-------------------------------------------------------|
|-----------------------------|-----------------------------|
|-----------------------------|-----------------------------|
|-----------------------------|-----------------------------|
|----0-------0-----0-------0--|----0-------0-----0-------0--|
|----0-------0-----0-------0--|----0-------0-----0-------0--|
|----0-------0-----0-------0--|----0-------0-----0-------0--|


  Q=114
|--------------------------------------------|
|--------------------------------------------|
|--------------------------------------------|
|--------------------------------------------|
|-0--------------------------------------0-0-|
|-0--------------------------------------0-0-|
|
|                                     TP
|--------------------------------------------|
|--------------------------------------------|
|--------------------------------------------|
|-------------------------7-7-7--------------|
|-------5-5-5-7-7-7-8-8-8-------5-5-5-8\---0-|
|-0-0-0--------------------------------------|


|--------------------------------------------------|
|--------------------------------------------------|
|--------------------------------------------------|
|--------------------------------------------------|
|--------------------------------------------------|
|-0-0-0-9-9-9-5-5-5-0-0-0-9-9-9-5-5-5-2-2-2-9-9-9--|
|
|--------------------------------------------------|
|--------------------------------------------------|
|--------------------------------------------------|
|--------------------------------------------------|
|--------------------------------------------------|
|-0-0-0-9-9-9-5-5-5-0-0-0-9-9-9-5-5-5-2-2-2-9-9-9--|


  Gtrs I, II
|-------------------------------------------------------|
|-------------------------------------------------------|
|-------------------------------------------------------|
|-------------------------------------------------------|
|-------------------------------------------------------|
|-3-3-3-10-10-10-9-9-9-5-5-5-10-10-10-9-9-9-5-5-5-9-9-9-|


                                      TP
|---------------------------------------------|
|---------------------------------------------|
|---------------------------------------------|
|-------------------------7-7-7---------------|
|-------5-5-5-7-7-7-8-8-8-------5-5-5-8\-0-0--|
|-0-0-0----------------------------------0-0--|


|-------------------------------------------------|
|-------------------------------------------------|
|-------------------------------------------------|
|-------------------------------------------------|
|-------------------------------------------------|
|-0-0-0-9-9-9-5-5-5-0-0-0-9-9-9-5-5-5-2-2-2-9-9-9-|


|--------------------------------------------------------|
|--------------------------------------------------------|
|--------------------------------------------------------|
|--------------------------------------------------------|
|--------------------------------------------------------|
|-3-3-3-10-10-10-9-9-9-5-5-5-10-10-10-9-9-9-5-5-5-9-9-9--|


    Gtr I
-----------------------------------------------------
||--------------------------------------------------|
||o-------------------------------------------------|
||--------------------------------------------------|
||--------------------------------------------------|
||o-0-----0-----0---0---0-----0-----0-----0--0-0----|
||--0-----0-----0---0---0-----0-----0-----0--0-0----|
|
|   Gtr II
|                                         TP
||--------------------------------------------------|
||o-------------------------------------------------|
||--------------------------------------------------|
||----------------------------7-7-7-----------------|
||o-------5-5-5-7-7---7-8-8-8-------5-5-5-8\-----0--|
||--0-0-0-------------------------------------------|


 ---------------------------------------TP  TP  TP
|--------------------------------------------------------|
|--------------------------------------------------------|
|--------------------------------------------------------|
|--------------------------------------------------------|
|-0-----0-----0---0---0-----0-----0-----0---0---0--------|
|-0-----0-----0---0---0-----0-----0-----0---0---0--------|
|
|--------------------------------------------------------|
|--------------------------------------------------------|
|--------------------------------------------------------|
|--------------------------------------------------------|
|--------------------------------------------------------|
|-0-0-0-9-9-9-5-5---5-0-0-0-9-9-9-5-5-5-2-2---2-9-9-9----|


----------------------------------------------TP  TP  TP
|------------------------------------------------------------||
|-----------------------------------------------------------o||
|------------------------------------------------------------||
|------------------------------------------------------------||
|-0------0-------0---0---0------0-------0-----0---0---0-----o||
|-0------0-------0---0---0------0-------0-----0---0---0------||
|
|------------------------------------------------------------||
|-----------------------------------------------------------o||
|------------------------------------------------------------||
|------------------------------------------------------------||
|-----------------------------------------------------------o||
|-3-3-3-10-10-10-9-9---9-5-5-5-10-10-10-9-9-9-5-5---5-9-9-9--||


|-------------------------|
|-------------------------|
|-------------------------|
|-------------------------|
|-0-0-----0-0---0-0-------|
|-0-0-----0-0---0-0-------|
|
| PM|     PM|   PM|
|-------------------------|
|-------------------------|
|-------------------------|
|-------------------------|
|-------------5-----4-5-7-|
|-0-0-8-7-0-0---0-0-------|


|-------------------------|-------------------------|
|-------------------------|-------------------------|
|-------------------------|-------------------------|
|-------------------------|-------------------------|
|-0-0-----0-0---0-0-------|-0-0-----0-0---0-0-------|
|-0-0-----0-0---0-0-------|-0-0-----0-0---0-0-------|
|
|-------------------------|-------------------------|
|-------------------------|-------------------------|
|-------------------------|-------------------------|
|-------------------------|-------------------------|
|-----7-5-----8-----5-7-8-|-------------5-----1-4-5-|
|-0-0-----0-0---0-0-------|-0-0-8-7-0-0---0-0-------|


|---------------------------|
|---------------------------|
|---------------------------|
|-------------7-5---7-5-----|
|-0-0-----0-0-----8-----8-7-|
|-0-0-----0-0---------------|
|
|---------------------------|
|---------------------------|
|---------------------------|
|---------------------------|
|-----5-4-----8-7-5-8-7-5-4-|
|-0-0-----0-0---------------|


||-----------------------------|-----------------------------|
||o----------------------------|-----------------------------|
||-----------------------------|-----------------------------|
||-----------------------------|-----------------------------|
||o-----5-4-----8-----7-8-10---|-----10-8-----12-----8-10-12-|
||--0-0-----0-0---0-0----------|-0-0------0-0----0-0---------|
|
|   PM|     PM|     PM|          PM|      PM|    PM|
||-----------------------------|-----------------------------|
||o----------------------------|-----------------------------|
||-----------------------------|-----------------------------|
||-----------------------------|-----------------------------|
||o-------------5-------4--5-7-|------7-5------8-----5--7--8-|
||--0-0-8-7-0-0-----0-0--------|-0-0------0-0----0-0---------|


|-------------------------|-----------------------------||
|-------------------------|----------------------------o||
|-------------------------|-----------------------------||
|-------------------------|-------------7-5---7-5-------||
|-----5-4-----8-----4-5-8-|-----8-7---------8-----8-7--o||
|-0-0-----0-0---0-0-------|-0-0-----0-0-----------------||
|
| PM|     PM|   PM|         PM|     PM|
|-------------------------|-----------------------------||
|-------------------------|----------------------------o||
|-------------------------|-----------------------------||
|-------------------------|-----------------------------||
|-------------5-----1-4-5-|-----5-4-----8-7-5-8-7-5-4--o||
|-0-0-8-7-0-0---0-0-------|-0-0-----0-0-----------------||


  Q=101
|-----------------------|-----------------------|
|-----------------------|-----------------------|
|-----------------------|-----------------------|
|-----------------------|-----------------------|
|-----------------------|-0--2--3-2--3--4-3--2--|
|-----------------------|-0--2--3-2--3--4-3--2--|
|
|-----------------------|-----------------------|
|-----------------------|-----------------------|
|-----------------------|-----------------------|
|-----------------------|-----------------------|
|-0--2--3-2--3--4-3--2--|-----------------------|
|-0--2--3-2--3--4-3--2--|-----------------------|


                                              ~~~
|-----------------------|---------------------------|
|-----------------------|---------------------------|
|-----------------------|---------------------------|
|-----------------------|--------------------<7>----|
|-0--2--3-2--3--4-3--2--|-0--2--3-2--3--4-3---------|
|-0--2--3-2--3--4-3--2--|-0--2--3-2--3--4-3---------|
|
|                                             ~~~
|-----------------------|---------------------------|
|-----------------------|---------------------------|
|-----------------------|---------------------------|
|-----------------------|---------------------------|
|-0--2--3-2--3--4-3--2--|-0--2--3-2--3--4-3--<8>----|
|-0--2--3-2--3--4-3--2--|-0--2--3-2--3--4-3---------|


                                                  ~~~
                           3x
||-------------------------||------------------------|
||o-----------------------o||------------------------|
||-------------------------||------------------------|
||-------------------------||--------------------<7>-|
||o-0--2--3-2--3--4-3--2--o||-0--2--3-2--3--4-3------|
||--0--2--3-2--3--4-3--2---||-0--2--3-2--3--4-3------|
|
|                                                 ~~~
|                          3x
||-------------------------||------------------------|
||o-----------------------o||------------------------|
||-------------------------||------------------------|
||-------------------------||------------------------|
||o-0--2--3-2--3--4-3--2--o||-0--2--3-2--3--4-3--<8>-|
||--0--2--3-2--3--4-3--2---||-0--2--3-2--3--4-3------|


  Q=138
         PM|
|------------|-----------|--------------------|
|------------|-----------|--------------------|
|-7----------|-----------|-2------------------|
|-7----------|-8----7----|-0------------------|
|-5------0-0-|-8----7----|-0------------------|
|--------0-0-|-8----7----|-0------------------|
|
|        PM|
|------------|-----------|--------------------|
|------------|-----------|--------------------|
|-7----------|-----------|------11-12-12-7----|
|-7----------|-8----7----|-0------------------|
|-5------0-0-|-8----7----|-0------------------|
|--------0-0-|-8----7----|-0------------------|


                              PM|
|--------------------|------------|-----------|
|--------------------|------------|-----------|
|-(2)----------------|-7----------|-----------|
|-(0)----------------|-7----------|-8----7----|
|-(0)----------------|-5------0-0-|-8----7----|
|-(0)----------------|--------0-0-|-8----7----|
|
|                             PM|
|--------------------|------------|-----------|
|--------------------|------------|-----------|
|--8--11-11-8-7-8-7--|-7----------|-----------|
|--------------------|-7----------|-8----7----|
|--------------------|-5------0-0-|-8----7----|
|--------------------|--------0-0-|-8----7----|


|------------------|------------------------|
|------------------|------------------------|
|-2----------------|-(2)--------------------|
|-0----------------|-(0)--------------------|
|-0----------------|-(0)--------------------|
|-0----------------|-(0)--------------------|
|
|------------------|------------------------|
|------------------|------------------------|
|------10-11-14-12-|-12--15-15-14-14S15S14--|
|-0----------------|------------------------|
|-0----------------|------------------------|
|-0----------------|------------------------|


           PM|
||-------------|-----------|-----------------|-------------------|
||o------------|-----------|-----------------|-------------------|
||--7----------|-----------|-2---------------|-(2)---------------|
||--7----------|-8----7----|-0---------------|-(0)---------------|
||o-5------0-0-|-8----7----|-0---------------|-(0)---------------|
||---------0-0-|-8----7----|-0---------------|-(0)---------------|
|
|          PM|
||-------------|-----------|-----------------|-------------------|
||o------------|-----------|------10S11-11-7-|--8--10-10-8-7-8-7-|
||--7----------|-----------|------11S12-12-7-|--8--11-11-8-7-8-7-|
||--7----------|-8----7----|-0---------------|-------------------|
||o-5------0-0-|-8----7----|-0---------------|-------------------|
||---------0-0-|-8----7----|-0---------------|-------------------|


         PM|
|------------|-----------|------------------|-------------------------||
|------------|-----------|------------------|------------------------o||
|-7----------|-----------|-2----------------|-(2)---------------------||
|-7----------|-8----7----|-0----------------|-(0)---------------------||
|-5------0-0-|-8----7----|-0----------------|-(0)--------------------o||
|--------0-0-|-8----7----|-0----------------|-(0)---------------------||
|
|        PM|
|------------|-----------|------------------|-------------------------||
|------------|-----------|-------9-10-13-11-|-11--14-14-13-13-14-13--o||
|-7----------|-----------|------10-11-14-12-|-12--15-15-14-14-15-14---||
|-7----------|-8----7----|-0----------------|-------------------------||
|-5------0-0-|-8----7----|-0----------------|------------------------o||
|--------0-0-|-8----7----|-0----------------|-------------------------||


         PM|
|------------|-----------|------------------|------------------------*|
|------------|-----------|------------------|------------------------*|
|-7----------|-----------|-2----------------|-(2)--------------------*|
|-7----------|-8----7----|-0----------------|-(0)--------------------*|
|-5------0-0-|-8----7----|-0----------------|-(0)--------------------*|
|--------0-0-|-8----7----|-0----------------|-(0)--------------------*|
|
|        PM|
|------------|-----------|------------------|------------------------*|
|------------|-----------|-------9-10-13-11-|-11--14-14-13-13-14-13--*|
|-7----------|-----------|------10-11-14-12-|-12--15-15-14-14-15-14--*|
|-7----------|-8----7----|-0----------------|------------------------*|
|-5------0-0-|-8----7----|-0----------------|------------------------*|
|--------0-0-|-8----7----|-0----------------|------------------------*|


____________________________________________________
____________________________________________________
____________________________________________________
_________________The Decaying Process_______________
____________________________________________________
____________________________________________________


tuning:B,E,A,D,G,B,E  7-String

. palm mute


E-----------------------------------------------------------|
B-----------------------------------------------------------|
G-----------------------------------------------------------|
D-----------------------------------------------------------|
A-1---0---1---0---1---0-------------------------------------|
E-1---0---1---0---1---0-------------------------------------|
B-1---0---1---0---1---0------1----3-4---2--1h2p1------------|
      .       .       .


E-----------------------------------------------------------|
B-----------------------------------------------------------|
G-----------------------------------------------------------|
D-----------------------------------------------------------|
A-1---0---1---0---1---0-------------------------------------|
E-1---0---1---0---1---0-------------------------------------|
B-1---0---1---0---1---0-------3-5-7-10-11-9h10p9------------|
Tap to rate this tab
# A B C D E F G H I J K L M N O P Q R S T U V W X Y Z