Song name
# A B C D E F G H I J K L M N O P Q R S T U V W X Y Z

Thunderbolt - Inhuman Ritual Massmurder tab

http://www.metal-archives.com/bands/Thunderbolt/2220

Band: Thunderbolt
Album: Inhuman Ritual Massmurder
Song: Inhuman Ritual Massmurder

Transcribed By: Pablo1349


.  - palm mute           /  - slide up to
\  - slide down to       ~  - vibrato
h  - hammer on           b  - Bend
p  - pull off            Suffixes for bend
t  - tap                 f  - full bend    h - half bend
ph - pinched harmonic    q  - quarter bend t - tap bend
*  - see comment         ^  - Hold bend    r release bend
x  - Stuccatto           ~  - vibrato bend
,  - slight palm mute    () - ghost note, sustained note
"  - tremolo note        <> - Trill

Tuning D G C F A D

Intro:


D||------------------------------------|
A||------------------------------------|
F||------------------------------------|
C||------------------------------------|
G||---2----(2)----(2)------------------|x10
D||---0----(0)----(0)----(1)-(0)/(1)---|
                          * With Tremolo Bar


|----------------------------------------------------------------|
|----------------------------------------------------------------|
|----------------------------------------------------------------|
|----------------------------------------------------------------|
|----------------------------------------------------------------|
|-4-3-1-0-1-3-4-3-0--0----1-1-0--------0--0----1-1----0----13/---|
  . . . . . . . . .  .    . . .        .  .    . .    .


Verse:

|---------------------------------------------------------------------|
|---------------------------------------------------------------------|
|---------------------------------------------------------------------|
|---------------------------------------------------------------------|
|------2---------1--------------3---------2---------1-----------------|
|-0---------0---------0----1---------0---------0---------0----1-3-2-1-|
  "    "    "    "    "    "    "    "    "    "    "    "   " " " " Very fast


|-----------------------------------------------------------------------|
|-----------------------------------------------------------------------|
|-----------------------------------------------------------------------|
|-----------------------------------------------------------------------|
|------2---------1--------------3---------2---------1-------------------|x2
|-0---------0---------0----1---------0---------0---------0----2----1----|
  "    "    "    "    "    "    "    "    "    "    "    "    "    "


Chorus (Both Guitars):


|------------------------------------------------|
|------------------------------------------------|
|------------------------------------------------|
|------------------4-----------------------------|
|---2----4----5----2----3------------------------|
|---0----2----3---------1--------4-3-1-0-1-3-4-3-|
    "    "    "    "    "        . . . . . . . .
 Here you can play tremolo pick
 Or just power chords


Then:

//Guitar 1
//|------------------------------------------------|
//|------------------------------------------------|
//|------------------------------------------------|
//|------------------------------------------------|
//|---7----5----3----2----3------------------------|
//|-----------------------1--------4-3-1-0-1-3-4-3-|
//    "    "    "    "
//
//
//Guitar 2
//|------------------------------------------------|
//|------------------------------------------------|
//|------------------------------------------------|
//|------------------4-----------------------------|Play All Chorus x2
//|---2----4----5----2----3------------------------|
//|---0----2----3---------1--------4-3-1-0-1-3-4-3-|


Verse:

|---------------------------------------------------------------------|
|---------------------------------------------------------------------|
|---------------------------------------------------------------------|
|---------------------------------------------------------------------|
|------2---------1--------------3---------2---------1-----------------|
|-0---------0---------0----1---------0---------0---------0----1-3-2-1-|
  "    "    "    "    "    "    "    "    "    "    "    "   " " " " Very fast


|-----------------------------------------------------------------------|
|-----------------------------------------------------------------------|
|-----------------------------------------------------------------------|
|-----------------------------------------------------------------------|
|------2---------1--------------3---------2---------1-------------------|x2
|-0---------0---------0----1---------0---------0---------0----2----1----|
  "    "    "    "    "    "    "    "    "    "    "    "    "    "


Chorus (Both Guitars):


|------------------------------------------------|
|------------------------------------------------|
|------------------------------------------------|
|------------------4-----------------------------|
|---2----4----5----2----3------------------------|
|---0----2----3---------1--------4-3-1-0-1-3-4-3-|
    "    "    "    "    "        . . . . . . . .
 Here you can play tremolo pick
 Or just power chords


Then:

//Guitar 1
//|------------------------------------------------|
//|------------------------------------------------|
//|------------------------------------------------|
//|------------------------------------------------|
//|---7----5----3----2----3------------------------|
//|-----------------------1--------4-3-1-0-1-3-4-3-|
//    "    "    "    "
//
//
//Guitar 2
//|------------------------------------------------|
//|------------------------------------------------|
//|------------------------------------------------|
//|------------------4-----------------------------|Play All Chorus x2
//|---2----4----5----2----3------------------------|
//|---0----2----3---------1--------4-3-1-0-1-3-4-3-|



Now guitar 2 plays this but one octave lower (except 0's)
----------------------------------------------|
----------------------------------------------|
----------------------------------------------|
--------9------10--------------9------12------|
-------------------8--10----------------------|
---0----------------------0-------------------|
   "    "       "  "   "  "    "       "

---------------------------------------------|
---------------------------------------------|
---------------------------------------------|
--------9------10--------------9------7------|
-------------------8--10---------------------|x2
---0----------------------0------------------|
   "    "       "  "   "  "    "       "



 Here guitar 2 plays tremolo power chords (see below tab)
|-----------------------------------------------------------------------------|
|-----------------------------------------------------------------------------|
|-----------------------------------------------------------------------------|
|--------9-----------------7-----------------5-----------------4---------4----|
|-----------------------------------------------------------------------------|
|---0-----------------5-----------------3-----------------2---------2---------|
    "    "            "    "            "    "            "    "    "    "
G2: D5                G5                F5                E5


---------------------------------------------------------------------------|
---------------------------------------------------------------------------|
---------------------------------------------------------------------------|
------14----------------12----------------10-----------------9---------7---|
---------------------------------------------------------------------------|x2
-0-----------------7-----------------8-----------------7---------5---------|
 "    "            "    "            "    "            "    "    "    "
G5                A5                B5                A5


------------------------------------------------------------|
------------------------------------------------------------|
------------------------------------------------------------|
----------6-----------------------------6-------------7-----|
--4----4-----4----------5-------4----4-----4--5----5-----5--|
----------------3----3-----3--------------------------------|


------------------------------------------------------------|
------------------------------------------------------------|
------------------------------------------------------------|
----------6-----------------------------6-------------5-----|
--4----4-----4----------5-------4----4-----4--3----3-----3--|x4
----------------3----3-----3--------------------------------|



|-------------------------------------------|
|-------------------------------------------|
|-------------------------------------------|
|-------3--------6--------3-------------3ph-|
|-2--2--1--2--2--4--2--2--1--------2-1------|
|-0--0-----0--0-----0--0-----3-2-3----------|
  .  .     .  .     .  .     . . .

|-------------------------------------------|
|-------------------------------------------|
|-------------------------------------------|
|-------3--------6--------3-----------------|
|-2--2--1--2--2--4--2--2--1--------2-1------|
|-0--0-----0--0-----0--0-----3-2-3------3ph-|
  .  .     .  .     .  .     . . .
|-------------------------------------------|
|-------------------------------------------|
|-------------------------------------------|
|-------3--------6--------3-------------3ph-|
|-2--2--1--2--2--4--2--2--1--------2-1------|
|-0--0-----0--0-----0--0-----3-2-3----------|
  .  .     .  .     .  .     . . .

|-------------------------------------------|
|-------------------------------------------|
|-------------------------------------------|
|-------3--------6--------3-----------------|
|-2--2--1--2--2--4--2--2--1--------2-1------|
|-0--0-----0--0-----0--0-----3-2-3------3p0-|
  .  .     .  .     .  .     . . .




|----------------------------------------------------------------------|
|----------------------------------------------------------------------|
|----------------------------------------------------------------------|
|-----------------------------------4-------------------------8--------|
|-2----------------6----------------2----------------6--------6---6----|x4
|-0----------------4---------------------------------4------------4----|
  "                "                "                "        "   "


|------------------|
|(0)---------------|
|(0)---------------|
|(2)---------------|
|-2----------------|
|-0----------------|
  "

Verse:

|---------------------------------------------------------------------|
|---------------------------------------------------------------------|
|---------------------------------------------------------------------|
|---------------------------------------------------------------------|
|------2---------1--------------3---------2---------1-----------------|
|-0---------0---------0----1---------0---------0---------0----1-3-2-1-|
  "    "    "    "    "    "    "    "    "    "    "    "   " " " " Very fast


|-----------------------------------------------------------------------|
|-----------------------------------------------------------------------|
|-----------------------------------------------------------------------|
|-----------------------------------------------------------------------|
|------2---------1--------------3---------2---------1-------------------|x2
|-0---------0---------0----1---------0---------0---------0----2----1----|
  "    "    "    "    "    "    "    "    "    "    "    "    "    "


Chorus (Both Guitars):


|------------------------------------------------|
|------------------------------------------------|
|------------------------------------------------|
|------------------4-----------------------------|
|---2----4----5----2----3------------------------|
|---0----2----3---------1--------4-3-1-0-1-3-4-3-|
    "    "    "    "    "        . . . . . . . .
 Here you can play tremolo pick
 Or just power chords


Then:

//Guitar 1
//|------------------------------------------------|
//|------------------------------------------------|
//|------------------------------------------------|
//|------------------------------------------------|
//|---7----5----3----2----3------------------------|
//|-----------------------1--------4-3-1-0-1-3-4-3-|
//    "    "    "    "
//
//
//Guitar 2
//|------------------------------------------------|
//|------------------------------------------------|
//|------------------------------------------------|
//|------------------4-----------------------------|Play All Chorus x2
//|---2----4----5----2----3------------------------|
//|---0----2----3---------1--------4-3-1-0-1-3-4-3-|
Tap to rate this tab
# A B C D E F G H I J K L M N O P Q R S T U V W X Y Z