Song name
# A B C D E F G H I J K L M N O P Q R S T U V W X Y Z

Tiger Lillies - Reap What You Sow tab

         The Tiger Lillies
         -----------------
         Reap What You Sow

 Progression: C Em Am Dm G7
 Use straight fingerpicking:
 
    C
 e----------0---------------0-------|
 B--------1---1-----------1---1-----|
 G------0-------0-------0-------0---|
 D----2-----------2---2-----------2-|
 A--3---------------3---------------|
 E----------------------------------|
   
    Em
 e----------0---------------0-------|
 B--------0---0-----------0---0-----|
 G------0-------0-------0-------0---|
 D----2-----------2---2-----------2-|
 A----------------------------------|
 E--0---------------0---------------|

    Am
 e----------0---------------0-------|
 B--------1---1-----------1---1-----|
 G------2-------2-------2-------2---|
 D----2-----------2---2-----------2-|
 A--0---------------0---------------|
 E----------------------------------|   
 
    Dm
 e--------1-----------------1-------|
 B------3---3-------------0---0-----|
 G----2-------2---2-----0-------0---|
 D--0-----------0-----0-----------0-|
 A----------------------------------|
 E------------------3---------------|

  You can also use some bass notes with
 fingerpicking, like in this variation
 of the beginning:

    C                           (bass notes)
 e----------0---------------0-------|
 B--------1---1-----------1---1-----|
 G------0-------0-------0-----------|
 D----2-----------2---2-------------|
 A--3---------------3-----------3-2-|
 E----------------------------------|
   
    Em
 e----------0---------------0-------|
 B--------0---0-----------0---0-----|
 G------0-------0-------0-------0---|
 D----2-----------2---2-----------2-|
 A----------------------------------|
 E--0---------------0---------------| etc.

 C
    He's got to have a hobby
 Em
    He's got to have a vice
 Am
    It's just that his hobby
 Dm                       G7
    Well, it isn't very nice.

 C (etc.)

 He tells you don't tell no-one
 Or else you're gonna die
 Scars them for a lifetime
 And every night they cry

 Well both of his daughters
 His wife she didn't know
 Ruins all their lives
 But has to though

 And I saw him in the court room
 The tears ran from his eyes
 Were they a crocodiles
 I wouldn't be surprised

 Now his life is over
 He's out of prison though
 I told him I told him
 You reap what you sow
 _________________
 aleister, Irkutsk
 uaioe@yandex.ru
Tap to rate this tab
 
# A B C D E F G H I J K L M N O P Q R S T U V W X Y Z