Song name
# A B C D E F G H I J K L M N O P Q R S T U V W X Y Z

Tigers Jaw - Chemicals chords

Highlighted       Show chord diagrams
-----------------------------------------------------------------------------
			     CHEMICALS - Tigers Jaw
-----------------------------------------------------------------------------
Tabbed by: Mean Mr Mustard
Email: Gotchristo@comcast.net

Pretty simple song, I figured I'd put up the chords since they're pretty simple. I 
included the solo too at the bottom.

Tuning: Standard


C    -  x-3-5-5-x-x-|
G/C  -  x-3-5-4-x-x-|
F    -  1-3-3-2-1-1-|
Am   -  x-0-2-2-1-0-|


INTRO:
C    G/C  x2


VERSE:
C                             G/C
We are made from chemicals
C                      G/C
But what holds us together is much more than that
F         Am                     F            Am
You are strong, so much stronger than me all along
                                    F
because you are everything and I am nothing


VERSE:
C                               G/C
We spend our summers writing songs
C                       G/C
Of how we never make it on our own but here we are
F        Am                 F              Am
And I surrender I'm running thin, you were right
                                    F
because you are everything and I am nothing


GUITAR SOLO:
C    G/C
C    G/C
C    G/C


VERSE:
C                         G/C
We are made from chemicals
F          Am                    F             Am
You are strong, so much stronger than me, all along
                                         F
because you are everything and I am nothing

End on Am


GUITAR SOLO: [try to let notes ring]

  C  (Change chord each repeat)        G/C
e|---------------------------------|--|-----------------------------------|
B|-----5-------5-----6-8-----------|--|-----8------8------8------8------8-|
G|-5-5---5-5-5---5-5-----5-7-9-7-5-|x3|-4-5----4-5----4-5----4-5----4-5---|
D|---------------------------------|--|-----------------------------------|
A|---------------------------------|--|-----------------------------------|
E|---------------------------------|--|-----------------------------------|

  C  (Change chord each repeat)                    WE ARE MADE FROM CHEMICALS
e|----------------------------------------------------|--|-------------|
B|-------17----------17-------18-20-------------------|--|-------------|
G|-17-17----17-17-17----17-17-------17-19-21-19-(17)*-|x2|-5-5-5-------|
D|----------------------------------------------------|--|-5-5-5-------|
A|----------------------------------------------------|--|-3-3-3-------|
E|----------------------------------------------------|--|-------------|

* Only play this note the first time. On the second time, slide down from the 19th fret.
Tap to rate this tab
 
# A B C D E F G H I J K L M N O P Q R S T U V W X Y Z