Song name
# A B C D E F G H I J K L M N O P Q R S T U V W X Y Z

Tigers Jaw - Carry You Over chords

Highlighted       Show chord diagrams
-----------------------------------------------------------------------------
                             CARRY YOU OVER - Tigers Jaw
-----------------------------------------------------------------------------
Hey guys, this is the new Tigers Jaw song, off the Off the Boards comp. That F# in the 
chorus is really quick before it goes into the G#m again.

Tuning: Standard


G#m      F#   E
B        F#   E             x2


G#m                     F#       E
I started thinking if I wasn't away
(E)             B                         F#                E
I couldn't pick up by the signs that slip through our conversation
(E)       G#m                      F#        E
This is a part of my life that I'd like to ignore
(E)
Till I'm ready to face it

G#m      F#   E
B        F#   E

(E)                 G#m                          F#     E
It started with the tremble in your voice giving you away
(E)           B                        F#        E
How could you think that I would still carry you over
(E)           G#m                     F#      E
There is this storm coming in and I'm underprepared
(E)
I give you nothing to stop it

G#m      F#   E
B        F#   E

G#m                B         E   F#
Was it hard living with your lies
G#m               B       E      F#
Was it hard living with your lies
G#m                B         E   F#
Was it hard living with your lies
G#m               B       E      F#
Was it hard living with your lies

G#m     F#   E

G#m   E                   G#m              E
Take apart the things you said to him that made this seem alright
G#m    E                 G#m                    E
Poison in your mind that all of the strength in your body cant fight
G#m   E                   G#m              E
Take apart the things you said to him that made this seem alright
G#m    E                 G#m                    E
Poison in your mind that all of the strength in your body cant fight

G#m         F#

G#m                B         E   F#
Was it hard living with your lies
G#m               B       E      F#
Was it hard living with your lies
G#m                B         E   F#
Was it hard living with your lies
G#m               B       E      F#
Was it hard living with your lies

G#m                B         E   F#
Was it hard living with your lies
G#m               B       E      F#
Was it hard living with your lies
G#m                B         E   F#
Was it hard living with your lies
G#m               B       E      F#
Was it hard living with your lies


G#m        F#     E



Intro/Outro/Interlude (whenever he plays this chord progression)
  G#m          F#      E               B           F#      E
e|-------------------------------------------------------------------------|
B|-------------------------------------------------------------------------|
G|-8--8--8--8--6-6-6-8-4-/8----8----8--11-11-11-11-6-6-6-8-4--8----8----8--|
D|-x--x--x--x--x-x-x-x-x--x----x----x--x--x--x--x--x-x-x-x-x--x----x----x--|
A|-6--6--6--6--4-4-4-6-2-/6----6----6--9--9--9--9--4-4-4-6-2--6----6----6--|
E|-------------------------------------------------------------------------|
 |                                                                         |
 |   (an overdub or something)                                             |
e|-------------------------------------------------------------------------|
B|-------------------------------------7--7--7--7--7-9-7-------------------|
G|-------------------------------------------------------8----8------------|
D|---------------------------------------------------------9--9------------|
A|------------------------------------------------------------7------------|
E|-------------------------------------------------------------------------|
Tap to rate this tab
# A B C D E F G H I J K L M N O P Q R S T U V W X Y Z