Song name
# A B C D E F G H I J K L M N O P Q R S T U V W X Y Z

Tigers Jaw - The Sun tab

-------------------------------------------------------------------------------
                             The Sun - Tigers Jaw
-------------------------------------------------------------------------------

Tuning: Standard

e|---------------------------------------------------------------------------|
B|---------------------------------------------------------------------------|
G|---5-5---5-5-5---10---10---10-10-10-----9---9---9-10-9-7---7---7-9-7-5-----|
D|---x-x---x-x-x---x----x----x--x--x------x---x---x-x--x-x---x---x-x-x-x-----|
A|---3-3---3-3-3---8----8----8--8--8------7---7---7-8--7-5---5---5-7-5-3-----|
E|---------------------------------------------------------------------------|

e|---------------------------------------------------------------------------|
B|---------------------------------------------------------------------------|
G|---5-5---5-5-5---10-x--9-x--7-x--5------9---9---9-10-9-7---7---7-9-7-5-----|
D|---x-x---x-x-x---x--x--x-x--x-x--x------x---x---x-x--x-x---x---x-x-x-x-----|
A|---3-3---3-3-3---8--x--7-x--5-x--3------7---7---7-8--7-5---5---5-7-3-3-----|
E|---------------------------------------------------------------------------|

e|---------------------------------------------------------------------------|
B|---------------------------------------------------------------------------|
G|---5-5---5-5-5---10---10---10-10-10-----9---9---9-10-9-7---7---7-9-7-------|
D|---x-x---x-x-x---x----x----x--x--x------x---x---x-x--x-x---x---x-x-x-------|
A|---3-3---3-3-3---3----3----3--3--3------7---7---7-8--7-5---5---5-7-5-------|
E|---------------------------------------------------------------------------|

e|---------------------------------------------------------------------------|
B|---------------------------------------------------------------------------|
G|---10---10-10-10-10-10-10-10-10-10-10-10-10-10-10--------------------------|
D|---x----x--x--x--x--x--x--x--x--x--x--x--x--x--x---------------------------|
A|---8----8--8--8--8--8--8--8--8--8--8--8--8--8--8---------------------------|
E|---------------------------------------------------------------------------|
Tap to rate this tab
# A B C D E F G H I J K L M N O P Q R S T U V W X Y Z