Song name
# A B C D E F G H I J K L M N O P Q R S T U V W X Y Z

Tiki Taane - Always On My Mind tab

----------------------------------------------------------------------------
			     Always on my mind - Tiki Taane
----------------------------------------------------------------------------
Tabbed by: ctjesse
Email: ctjesse@hotmail.com

Tuning: Standard - EADGBE

This is my first tab.  Not sure if im ment to tab it in a way that it shows the timing? 
listen to the song to get the timing.  Please leave comments.

E|---------------------------------------------------------------|
B|-10--9--10--9--------10--9--10--9------------------------------|
G|-11------------11----11------------9---------------------------|
D|-11------------------11----------------------------------------|
A|---------------------------------------------------------------|
E|---------------------------------------------------------------|

E|---------------------------------------------------------------|
B|---------------------------------------------------------------|
G|------------9--------------------------------------------------|
D|-9--11--12-----12--11--9--12--11-------------------------------|
A|---------------------------------------------------------------|
E|---------------------------------------------------------------|

E|---------------------------------------------------------------|
B|-10--9--10--9--------10--9--10--9------9-----------------------|
G|-11------------9-----11------------11--------------------------|
D|-11------------------11----------------------------------------|
A|---------------------------------------------------------------|
E|---------------------------------------------------------------|

E|---------------------------------------------------------------|
B|------------10-------------------------------------------------|
G|-9--11--12------12--11--9--12--9--11---------------------------|
D|---------------------------------------------------------------|
A|---------------------------------------------------------------|
E|---------------------------------------------------------------|
Tap to rate this tab
# A B C D E F G H I J K L M N O P Q R S T U V W X Y Z