Guitaretab - guitar tabs
Song name
# A B C D E F G H I J K L M N O P Q R S T U V W X Y Z

Tiktak - Heilutaan tab


E|----------------------------------------------------------------|
B|----------------------------------------------------------------|
G|-----7-----7------------------4-----4---------------------------|
D|------------------7-----7---------------------------------------|
A|-5-5---5-5----------------2-2---2-2----5------------------------|
E|--------------5-5---5-5------------------2345-5-----------------|

E|----------------------------------------------------------------|
B|----------------------------------------------------------------|
G|-----7-----7------------------4-----4---------------------------|
D|------------------7-----7---------------------------------------|
A|-5-5---5-5----------------2-2---2-2----5---------------5--------|
E|--------------5-5---5-5------------------2345-5--3--3----2345-5-|
[ Tab from: http://www.guitaretab.com/t/tiktak/53302.html ]
E|----------------------------------------------------------------|
B|-4--4--4--4--4--4--4--7--7--7--7--------------------------------|
G|-6--6--6--6--6--6--6--9--9--9--9--7--7--7--7--------------------|
D|-6--6--6--6--6--6--6--9--9--9--9--9--9--9--9--------------------|
A|-4--4--4--4--4--4--4--7--7--7--7--9--9--9--9--------------------|
E|----------------------------------7--7--7--7--------------------|

E|----------------------------------------------------------------|
B|-4--4--4--4--4--4--4--7--7--7--7--------------------------------|
G|-6--6--6--6--6--6--6--9--9--9--9--7--7--7--7--------------------|
D|-6--6--6--6--6--6--6--9--9--9--9--9--9--9--9--------------------|
A|-4--4--4--4--4--4--4--7--7--7--7--9--9--9--9--------------------|
E|----------------------------------7--7--7--7--------------------|

E|----------------------------------------------------------------|
B|-4--4--4--4--4--4--4--7--7--7--7--7--777------------------------|
G|-6--6--6--6--6--6--6--9--9--9--9--9--999------------------------|
D|-6--6--6--6--6--6--6--9--9--9--9--9--999------------------------|
A|-4--4--4--4--4--4--4--7--7--7--7--7--777------------------------|
E|----------------------------------------------------------------|

i know its not the whole song but it's played like that most of the time.
Related for Heilutaan tab
Advertisement will be closed in 10 seconds