Song name
# A B C D E F G H I J K L M N O P Q R S T U V W X Y Z

Tim And Eric - Theme tab

Tim and Eric awesome show "Great Job"

http://www.youtube.com/watch?v=mhOasQq9rmc

tab:a.k Senftleber :}

-------------------------------10-12-|
-------------------------12-14-------|
-------------------12-14-------------|
-2--5--7-----14-16-------------------|
-2--5--7-----------------------------|
-0--3--5-----------------------------|


--15-14--------15-14--------------19-----|
--------15-17--------15-17--15-17--------|
-----------------------------------------|
-----------------------------------------|
-----------------------------------------|
-----------------------------------------|


17-15-14-12-15-14-12----14-12-------12-|
---------------------15-------15-13----|
---------------------------------------|
---------------------------------------|
---------------------------------------|
---------------------------------------|

------------------------------------|
15-13-12-15-13-12----13-12----------|
------------------14-------14-12----|
------------------------------------|
------------------------------------|
------------------------------------|

----------------------------------12-------|
-------12-13----12-13-15-12-13-15----13-15-|
-12-14-------14----------------------------|
-------------------------------------------|
-------------------------------------------|
-------------------------------------------|

12-14----12-14-15-12-14-15-17-15-17-19-24-|
------15----------------------------------|
------------------------------------------|
------------------------------------------|
------------------------------------------|  Great job !
------------------------------------------|
Tap to rate this tab
 
# A B C D E F G H I J K L M N O P Q R S T U V W X Y Z