Song name
# A B C D E F G H I J K L M N O P Q R S T U V W X Y Z

Tim Be Told - Ordinary tab

Hi :] This is my first tab written. ever since i heard this song i wanted to play it,
but i searched everywhere and could not find anything. I think i have a good start to the
tabbing of the song though. some parts may be a little or a lot off, so i am hoping 
someone of you could help me fix the missing pieces.
THIS SONG IS PLAYING WITH A CAPO ON THE 3RD FRET.

Gm
e|0
B|0
G|4
D|5
A|5
E|3
This chord is used during the chorus. I am not even sure if its called a Gm Or am i
really sure of that being the right sound during the part, but it works.



Verse

e|---2-------2---------------------------------------------------------------|
B|---3-------3---------------------3-----2-----------------------------------|
G|---2-------2---------------------0-----2-----------------------------------|
D|-0-------------------------------2-----2-----------------------------------|
A|-----------4---------------------2-----0-----------------------------------|
E|---------------------------------------------------------------------------|
        Why am i such in a rush to be somebody?

e|------------------------------------------2h3------------------------------|
B|---3-----------3----------------3---------3--------3-----------------------|
G|---0-----------2----------------0---------2-------2------------------------|
D|---0-----------0----------------2---------0-------2------------------------|
A|--------------------------------2------------------------------------------|
E|---3-----------2-----------------------------------------------------------|
          leaving behind all the things Id rather be
e|------4--------------------------2-----------------------------------------|
B|------3---3-------3---------3----3------------------------3----------------|
G|------2---0-------2---------0----2---------------------0-------------------|
D|------2---0-------0---------2----0------------------2----------------------|
A|----------------------------2--------------------3-------------------------|
E|----------3-------2--------------------------------------------------------|
        I dont know how success ever mattered to me




Pre-Pre-Chorus

e|--------------------------------------------2h3----------------------------|
B|-3-----3-------------------3----------------3------------------------------|
G|-0-----2-------------------0----------------2------------------------------|
D|-0-----0-------------------2----------------0------------------------------|
A|---------------------------2-----------------------------------------------|
E|-3-----2-------------------------------------------------------------------|
   daddy always told me only doctors and some lawyers succeed

e|------------------------------------10-------------------------------------|
B|-3------3----------------0----------10-------------------------------------|
G|-0------2----------------4----------10-------------------------------------|
D|-0------0----------------5----------10-------------------------------------|
A|-------------------------5-------------------------------------------------|
E|-3------2----------------3----------10-------------------------------------|
   in what we call the present day

e|--------------------------------------------2h3------------------------------|
B|-3-----3-------------------3----------------3--------------------------------|
G|-0-----2-------------------0----------------2--------------------------------|
D|-0-----0-------------------2----------------0--------------------------------|
A|---------------------------2-------------------------------------------------|
E|-3-----2---------------------------------------------------------------------|
my mama always said that I would never stand a chance in this world
e|-----------------------------2---------------------------------------------|
B|----3--------3---------3-----3---------------------------------------------|
G|----0--------2---------0-----2---------------------------------------------|
D|----0--------0---------2-----0---------------------------------------------|
A|-----------------------2---------------------------------------------------|
E|----3--------2-------------------------------------------------------------|
     singing my life away

Pre-Chorus
G    em          F
I may never be a times square poster
     G         em        F
and Ill never be on a popular magazine
   G             em       F
I may never be an actor on the big screen
   G           em          F
and I dont remember if I ever cared at all

Chorus
D      em       D
Im just an ordinary guy
A           G
just getting by
          EM              Gm
riding the tide trying to hide
 D       em        D
Im just an ordinary face
A            G
finding my place
          em            D
you wont remember my name

after I go away

Play until the next verse
e|---2-------2----------------------------------2----------------------------|
B|---3-------3-----3---2--------3----3------3---3----------------------------|
G|---2-------2-----0---2--------0----2------0---2----------------------------|
D|-0---------------2---2--------0----0------2--------------------------------|
A|-----------4-----2---0-----------------2-----------------------------------|
E|--------------------------3--------2---------------------------------------|

Verse.
Everyone tells me Im a rare condition
and maybe that God has a different plan for me
I dont presume to know
the reasons a mystery

Pre-pre Chorus.
people always telling me that I am something special
well its too much pressure to take
the preacher always told me that Jesus might be watching me
throwing my life away.

Pre-chorus.
I may never be a perfect person
but Ill do my best to try to make you happy
and I will never meet your expectations
but I never cared at all

Chorus.
Im just an ordinary guy
just getting by
riding the tide trying to hide
Im just an ordinary face
finding my place
you wont remember my name
after I go away


I have no idea what to do for the bridge :( sorry. If anyone knows, please copy this and
add the bridge in tyvm. Hope you guys enjoy this song as much as i do.
Tap to rate this tab
# A B C D E F G H I J K L M N O P Q R S T U V W X Y Z