Tim Berg - Seek Bromance tab

-----------------------------------------------------------------------------
			             Seek Bromance - Tim Berg
-----------------------------------------------------------------------------
Tabbed by: Cesar Luis
Email: cesar6luis (at) sapo (dot) pt

Tuning: EADGBE (standart)



hey there. this is my interpretation of this song.
I also uploaded the guitar pro version although the times aren't perfect.
It might help you figuring out this text one.

The chords are always the same for lyrics i guess: E B G#m C#5





      E                B         G#m       C#5                                 
E||-----------------|------|------------------|----------------||
B||---9-----12--9---|------|---------5--4-----|------------7---||
G||*--9-------------|--8---|-----4---------6--|---6--8--9-----*||
D||*--9-------------|--9---|--6------------6--|---------------*||
A||---7-------------|--9---|---------------4--|----------------||
E||-----------------|--7---|------------------|----------------||



 
||-------------------------------|------------------|-----------------------|
||---9----9----9----12-----------|------------------|--------5--4-----------|
||*--9----9----9-----9---11---8--|--8---8---8---8---|-----4--4--4--6--6--6--|
||*--9----9----9-----9----9---9--|--9---9---9---9---|--6--6--------6--6--6--|
||---7----7----7-----7----7---9--|--9---9---9---9---|--6-----------4--4--4--|
||----------------------------7--|--7---7---7---7---|--4--------------------|


-------------------------------||
-------------------------------||
--6----6----6----6--8--9--11--*||
--6----6----6----6------------*||
--4----4----4----4--6--7---9---||
-------------------------------||




abacate!
Tap to rate this tab
 
# A B C D E F G H I J K L M N O P Q R S T U V W X Y Z