Song name
# A B C D E F G H I J K L M N O P Q R S T U V W X Y Z

Tim Hawkins - What I Believe chords

Highlighted       Show chord diagrams
Intro

e|---------13-------------------12------------------10-------|
B|-----------------------------------------------------------|
G|----14-------14---------12-------12--------10---------10---|
D|--0-------------------0-----------------0------------------|
A|-----------------------------------------------------------|
E|-----------------------------------------------------------|

e|---------8----------------5-----------------------3------------3/1---|
B|---------------------------------------------------------------------|
G|----9------9--------5--------5------------4----------4---------4/2---|
D|-0-------------0--------------------0--------------------------------|
A|---------------------------------------------------------------------|
E|---------------------------------------------------------------------|


e|----3/1----------------------------------0----------0-------------------|
B|--------------------------------------------3---------3-----------------|
G|----4/2----------------------------2-----------2--------2---------------|
D|-------------------------0---3b---0-------------------------------------|
A|-----------0---0---3b---------------------------------------------------|
E|------------------------------------------------------------------------|

D                   C                 G   
I知 not the same , was ready for a change
C         G       F               D  
Everyday , my life was wasting away
D               C                      G
I was in place , where my future looked so cold
C             G            F           D
I needed light , and I felt so alone

CHORUS:
C        G        F               D                    
I知 a Christina , narrow road I ride
C         G  F       D 
And Jesus , gave me new life
C     G          F       D
I知 a Christian , bible by my side
C       G  F           D                    
Jesus , gave me new life

D                   C                 G 
I once was lost , now I have been saved
C          G           F            D
I致e seen his grace , always be amazed
D                            C                     G
So call on Jesus痴 name , and he値l change the way you think
C            G           F             D
Go to the living well , and take a drink


CHORUS:
C        G        F               D                    
I知 a Christina , narrow road I ride
C         G  F       D 
And Jesus , gave me new life
C     G          F       D
I知 a Christian , bible by my side
C       G  F           D                    
Jesus , gave me new life





D                     C                   G  
He walked the streets , cross upon his back
C             G          F                  D
And he took my shame , stood up to the attack
D                    C                 G
He rose from the dead , now he痴 standing tall
C                  G           F              D  
He faced a million demons , and he rocked 粗m all

       
C          G        F             D
I知 a Christian , narrow road I ride
C       G         F       D     
And Jesus , gave me new life
C            G          F          D
I知 a Christian , and Heaven I reside
C          G          F       D  
舛ause Jesus , gave me new life

C       G       C       G
And this little light of mine
C     G      F      D
I知 gonna let it shine
C       G       C       G
This little light of mine
C      G     C      G
I知 gonna let it shine
C       G       C       G
And this little light of mine
C     G      F      D
I知 gonna let it shine
C       G       C       G
This little light of mine
C      G     C      G
I知 gonna let it shine
C       G 
Let it shine , let it shine let it shine
Tap to rate this tab
# A B C D E F G H I J K L M N O P Q R S T U V W X Y Z