Song name
# A B C D E F G H I J K L M N O P Q R S T U V W X Y Z

Tim Mcgraw - Southern Girl tab

-------------------------------------------------------------------------------
                             Southern Girl - Tim Mcgraw
-------------------------------------------------------------------------------
Tabbed by: AUfan
E-mail: Benmhodge@gmail.com

Tuning: Standard

*Just play this and then keep on repeating it.*
e|-----------------------|
B|---3----7-----8----7---|
G|---0----0-----0----0---|
D|-----------------------|
A|------5----5/7---5-----|
E|-3---------------------|

| /   slide up
Tap to rate this tab
# A B C D E F G H I J K L M N O P Q R S T U V W X Y Z