Song name
# A B C D E F G H I J K L M N O P Q R S T U V W X Y Z

Tim Mcilrath - Its Late tab

(/) Slide Up  (\) Slide Down  (h) Hammer On  (p) Pull Off  (b) Bend (r) Release (v) Vibrato

Standard Tuning, Capo 4th Fret
*All tabs chords relative to capo ie       A|--0--      would be the open note on the
5th string WITH the capo on it.  As such, the chords (A, D, E, F#m, and Bm) are given as
their chord shapes, not the actual roots of the chords.  The real chords would be the 
chord shape given plus the 4 half-steps.

Intro

e|--2-------5-----2-2----0---0--0-0--------2-------5-----2-2----0---0--0-----0--0-|
B|--3--3----3-----3-3----0---0--0-0--------3--3----3-----3-3----0---0--0-----0--0-|
G|--2----2--2-----2-2----1---1--1-1--------2----2--2-----2-2----1---1--1-----1--1-|
D|--0-------0-----0-0----2---2--2-2--------0-------0-----0-0----2---2--2-----2--2-|
A|--0-------0-----0-0----2---2--2-2--------0-------0-----0-0----2---2--2-----2--2-|
E|--x-------x-----x-x----0---0--0-0--------x-------x-----x-x----0---0--0-----0--0-|

Verses

e| -----------------------------------------------------------------------|
B| ----------2----------------2----------------2----------------2---------|
G| ----2---2---2---2-----2--2---2---2-----2--2---2---2-----2--2---2---2---|
D| -----------------------------------------------------------------------|
A| --0---0-------0-----0--0-------0-----0--0-------0-----0--0-------0-----|
E| -----------------------------------------------------------------------|

e| -----------------------------------------------------------------------|
B| ---------2-------------------------------------------------------------|
G| ----2--2---2---2-----2-------2-----------2-----------2-------2---------|
D| -------------------2---2---2---2---4---4---4---4---4---4---4---4-------|
A| --0--0-------0---0-----------------------------------------------------|
E| -------------------------4-------2---2-------2---2-------0-------------|

e| -----------------------------------------------------------------------|
B| ----------3---------------0---------------2----------------0-----------|
G| ----2---2---2---2---1---1---1---1---2---2---2---2----1---1---1----1----|
D| --0---0-------0--------------------------------------------------------|
A| ----------------------------------0---0-------0------------------------|
E| ------------------0---0-------0--------------------0---0--------0------|

^  2x

Wrapped up in a short black coat worn thin,
A hand around her match to block the wind
She smiled as the smoke escaped her lips
And let her hand fall gently away from his

'Cause it's late now, and I'm tired of all these games
And the cold night stings my skin
I won't say it now, but I get closer every day
To letting this world win

*At this point, Tim starts strumming the same chords from above.

A                                    F#m
And the city chokes on everything it makes
D                       E              A      E
While the sunrise heals every heart it breaks
A                                    F#m
And not unlike the birds we all sing songs
D                E              A       E
To celebrate and mourn and just hang on

A                             F#m
'Cause it's late now, and the day has not been kind
D         E       A      E
So I came here to forget
A                     F#m
It's a hard town, but I hold my head up high
D                      E          A  E   or        E     A    E
Like a (?????Dead rose staying red?????Death Row Cigarettes????)


Bridge

*This is all strummed chords

F#m      E                 Bm      D
Can this all wait till the morning air
F#m           E                   Bm               D
I can't think straight right now, seems like we're better off
F#m                    E         A         Bm         D           E
Without these clenched fists all boxing us in, I want out, I want out

Last Verse

*repeat the same finger picking pattern from the beginning verse

Like Christmas lights left up till mid-july
We kept alive something that should have died
And every day another light burns out
Till on this street we are the darkest house

*start strumming again

A                         F#m
'Cause it's late now, and everybody's left
D           E       A   E
And I think I might too
A                                    F#m
But like my mother said, 'You always leave with who you bring.'
D          E         A
And I came here with you

A:                 F#m:                D:              E:               Bm

e|--0--|            e|--2--|             e|--2--|         e|--0--|          e|--2--|
B|--2--|            B|--2--|             B|--3--|         B|--0--|          B|--3--|
G|--2--|            G|--2--|             G|--2--|         G|--1--|          G|--4--|
D|--2--|            D|--4--|             D|--0--|         D|--2--|          D|--4--|
A|--0--|            A|--4--|             A|--x--|         A|--2--|          A|--2--|
E|--x--|            E|--2--|             E|--x--|         E|--0--|          E|--x--|


							http://www.guitartabcreator.com
Tap to rate this tab
# A B C D E F G H I J K L M N O P Q R S T U V W X Y Z