Song name
# A B C D E F G H I J K L M N O P Q R S T U V W X Y Z

Timbaland - Apologize tab

One Republic - Apologize

by towi

Capo 1st
Tab related to capo

Intro:

|---------------------------------------------|
|--1--------1-----------1---------1-----------|
|--2----2-----2----2----2-----2-------2-----2-|
|-----2---2------2---------3----3--------3----|
|--0------------------------------------------|
|-----------------------1---------------------|
   Am                   F		     



|---------------------------------------------|
|--1---------1-----------3---------3----1p0---|
|--0-----0-----0---0----------0---------------|
|------2---2-----2----------0---0-------------|
|--3------------------------------------------|
|------------------------3--------------------|


Repeat 2x


Verse:

(Single pluck per chord)

|---------------------------------------------|
|--------1------------------------------------|
|--------2------------------------------------|
|---------------------------------------------|
|--------0------------------------------------|
|---------------------------------------------|


         Am				

   I'm holding on your rope,	

|---------------------------------------------|
|-------1---------------1---------------3-----|
|-------2---------------0---------------------|
|---------------------------------------------|
|-----------------------3---------------------|
|-------1-------------------------------3-----|

        F               C               G

Got me ten feet off the ground



     Am	                            F                  C        G

I'm hearin what you say,     but I just can't make a sound



==Do intro pattern==

    Am

You tell me that you need me
		     
F                C                  G

Then you go and cut me down, but wait

     Am		

You tell me that you're sorry


F                          C        G

Didn't think i'd turn around and say


CHORUS
=Do same intro pattern, but with a little bit more intensity=

      Am               F

It's too late to apologize
     
      C         G

It's too late

========

=====
After Chorus 2-
=====


|-----------------------------------------------------|
|----6--------6---------6-----------6-----------------|
|----7----7-----7---7---7------7-------7-----7--------|
|------7----7-----7---------8----8--------8-----------|
|----5------------------------------------------------|
|-----------------------6-----------------------------|


HooooooOOAAAAAAoooooohhhhh~~~~~


|-----------------------------------------------------|
|---10------------10--------------8--------8----6p0---|
|---10------10--------10-----10---9-------------------|
|-------10-----10---------10--------------------------|
|---8----------------------------------10-------------|
|---------------------------------8-------------------|




Credits: 
Boyce Avenue's youtube cover of this song http://www.youtube.com/watch?v=7DOasai3_Vo 
Apologize Ver 4 Chords by mokiloki 
Tap to rate this tab
 
# A B C D E F G H I J K L M N O P Q R S T U V W X Y Z