Song name
# A B C D E F G H I J K L M N O P Q R S T U V W X Y Z

Time - Chocolate tab

Tab : 
|-X-x-x-x---x-x-x-x-x-|
|-5-x-7-7---5-x-7-7-5-|
|-5-x-5-5---5-x-5-5-5-|
|-5-x-5-5---5-x-5-5-5-|
|---------------------|
|---------------------|

|---------------------------------------------|
|---------------------------------------------|
|---------------------------------------------|
|-5-5-5-5-x-x-5-x-x-5-x-x-5-5-5-5-7-x-x-7---5-|
|---------------------------------------------|
|---------------------------------------------|
Tap to rate this tab
# A B C D E F G H I J K L M N O P Q R S T U V W X Y Z