Song name
# A B C D E F G H I J K L M N O P Q R S T U V W X Y Z

Timo Rautiainen Trio Niskalaukaus - Surupuku tab

OK, I know you've heard this before, but this really is my first tab. It does NOT have
or fast licks, it's great for beginners. And it's pretty slow...

Riff:

|-----------------------|-------------------------|
|-----------------------|-------------------------|
|----------------5------|--------5---7/9---7----5-|
|--7----5---7--------7--|--5--7-------------------|
|-----------------------|-------------------------|
|-----------------------|-------------------------|

Verse: x4
  A5                ____G5____________E5________ _____Riff's tail_________
                                     1,2,3      |                     4   |
|------------------|----------------------------|---------------------------|
|------------------|----------------------------|---------------------------|
|------------------|----------------------------|--------5---7/9---7----5---|
|--7-7-7-7-7--7-7--|--5--5--5--5----2--2--2--2--|--5--7---------------------|
|--7-7-7-7-7--7-7--|--5--5--5--5----2--2--2--2--|---------------------------|
|--5-5-5-5-5--5-5--|--3--3--3--3----0--0--0--0--|---------------------------|
|--------pm-----------------------------------------------------------------|

Chorus: (needs 2 guitars, 2. can play the verse in the back during the riff)

1. guitar (really slow, long notes)

|-----------------------------8~----|
|--10------8~--------8--------------|
|-----------------------------------|
|-----------------------------------|
|-----------------------------------|
|-----------------------------------|

2. guitar (keeps it heavy)

|------------------------|---------------------------|
|------------------------|---------------------------|
|------------------------|---------------------------|
|--7--7--7--7--7---7--7--|--5--5--5--5---2--2--2--2--|
|--7--7--7--7--7---7--7--|--5--5--5--5---2--2--2--2--|
|--5--5--5--5--5---5--5--|--3--3--3--3---0--0--0--0--|
|------------------------pm--------------------------|

Structure:

Riff   x4
Verse  x8
Riff   x4
Verse  x8
Chorus x4 (leave the last note off and start right at riff)
Riff   x4
Verse  x8
Riff   x8
Tap to rate this tab
# A B C D E F G H I J K L M N O P Q R S T U V W X Y Z