Song name
# A B C D E F G H I J K L M N O P Q R S T U V W X Y Z

Tin Soldiers - 24 Hours tab

I think this is like the first tab on the internet since I can't find another one. 
This tab is for playing along so not every single part is written.

Tabbed by Agatha2405

24 Hours by Tin Soldiers from album Telling Tales

Standard Tuning


Legend: tr - tremolo pick
        ~  - vibrato


e|-----------------------------------------------------------------------------|
B|-----------------------------------------------------------------------------|
G|-----------------------------------------------------------------------------|
D|-----------------------------------------------------------------------------|
A|--8-8-8-8-8-8-8-8-8-8-8-8--5-5-5-5-5-5-5-5-5-5-5-5--7-7-7-7-7-7-7-7-7-7-7-7--|
E|--6-6-6-6-6-6-6-6-6-6-6-6--3-3-3-3-3-3-3-3-3-3-3-3--5-5-5-5-5-5-5-5-5-5-5-5--|

e|---------------------------|
B|--7tr---9tr---10tr---12tr--|
G|---------------------------|
D|---------------------------|x6
A|---------------------------|
E|---------------------------|

e|---------------------|
B|--10tr---14tr---15~--|
G|---------------------|
D|---------------------|
A|---------------------|
E|---------------------|

e|---------------------------------------------------------------|
B|--10----10----10----10----10----11----11----11----11----11-13--|
G|-----10----10----10----10----10----10----10----10----10--------|
D|---------------------------------------------------------------|x2
A|---------------------------------------------------------------|
E|---------------------------------------------------------------|

e|-------------------------------------------------------|
B|--13-13-13-13-13-13-13-13--11-11-11-11-11-11-11-11-11--|
G|--10-10-10-10-10-10-10-10--10-10-10-10-10-10-10-10-10--|
D|-------------------------------------------------------|x4
A|-------------------------------------------------------|
E|-------------------------------------------------------|

e|----------------------------------------------------|
B|----------------------------------------------------|
G|----------------------------------------------------|
D|----------------------------------------------------|
A|--8-8-8-8-8-8-8-8-8-8-8-8--5-5-5-5-5-5-5-5-5-5-5-5--|
E|--6-6-6-6-6-6-6-6-6-6-6-6--3-3-3-3-3-3-3-3-3-3-3-3--|

e|------------------------------------------------------------|
B|------------------------------------------------------------|
G|------------------------------------------------------------|
D|---------------------------7-7-7-7-7-7-7-7-7-7-7-7-7-7-7-7--|
A|--7-7-7-7-7-7-7-7-7-7-7-7--5-5-5-5-5-5-5-5-5-5-5-5-5-5-5-5--|
E|--5-5-5-5-5-5-5-5-5-5-5-5-----------------------------------|

e|----------------------------------------------------|
B|----------------------------------------------------|
G|----------------------------------------------------|
D|----------------------------------------------------|
A|--8-8-8-8-8-8-8-8-8-8-8-8--5-5-5-5-5-5-5-5-5-5-5-5--|
E|--6-6-6-6-6-6-6-6-6-6-6-6--3-3-3-3-3-3-3-3-3-3-3-3--|

e|------------------------------------------------------------|
B|------------------------------------------------------------|
G|------------------------------------------------------------|
D|---------------------------7-7-7-7-7-7-7-7-7-7-7-7-7-7-7-7--|
A|--7-7-7-7-7-7-7-7-7-7-7-7--5-5-5-5-5-5-5-5-5-5-5-5-5-5-5-5--|
E|--5-5-5-5-5-5-5-5-5-5-5-5-----------------------------------|

e|---------------------------------------------------------------|
B|--10----10----10----10----10----11----11----11----11----11-13--|
G|-----10----10----10----10----10----10----10----10----10--------|
D|---------------------------------------------------------------|x2
A|---------------------------------------------------------------|
E|---------------------------------------------------------------|

e|-------------------------------------------------------|
B|--13-13-13-13-13-13-13-13--11-11-11-11-11-11-11-11-11--|
G|--10-10-10-10-10-10-10-10--10-10-10-10-10-10-10-10-10--|
D|-------------------------------------------------------|x4
A|-------------------------------------------------------|
E|-------------------------------------------------------|

e|----------------------------------------------------|
B|----------------------------------------------------|
G|----------------------------------------------------|
D|----------------------------------------------------|
A|--8-8-8-8-8-8-8-8-8-8-8-8--5-5-5-5-5-5-5-5-5-5-5-5--|
E|--6-6-6-6-6-6-6-6-6-6-6-6--3-3-3-3-3-3-3-3-3-3-3-3--|

e|------------------------------------------------------------|
B|------------------------------------------------------------|
G|------------------------------------------------------------|
D|---------------------------7-7-7-7-7-7-7-7-7-7-7-7-7-7-7-7--|
A|--7-7-7-7-7-7-7-7-7-7-7-7--5-5-5-5-5-5-5-5-5-5-5-5-5-5-5-5--|
E|--5-5-5-5-5-5-5-5-5-5-5-5-----------------------------------|

e|----------------------------------------------------|
B|----------------------------------------------------|
G|----------------------------------------------------|
D|----------------------------------------------------|
A|--8-8-8-8-8-8-8-8-8-8-8-8--5-5-5-5-5-5-5-5-5-5-5-5--|
E|--6-6-6-6-6-6-6-6-6-6-6-6--3-3-3-3-3-3-3-3-3-3-3-3--|

e|------------------------------------------------------------|
B|------------------------------------------------------------|
G|------------------------------------------------------------|
D|---------------------------7-7-7-7-7-7-7-7-7-7-7-7-7-7-7-7--|
A|--7-7-7-7-7-7-7-7-7-7-7-7--5-5-5-5-5-5-5-5-5-5-5-5-5-5-5-5--|
E|--5-5-5-5-5-5-5-5-5-5-5-5-----------------------------------|


e|--------------------------------------------------|
B|--------------------------------------------------|
G|--------------------------------------------------|
D|--------------------------------------------------|
A|--8-8---8-8---8-8---8-8----5-5---5-5---5-5---5-5--|
E|--6-6---6-6---6-6---6-6----3-3---3-3---3-3---3-3--|

e|--------------------------------------------------|
B|--------------------------------------------------|
G|--------------------------------------------------|
D|---------------------------7-7---7-7---7-7---7-7--|
A|--7-7---7-7---7-7---7-7----5-5---5-5---5-5---5-5--|
E|--5-5---5-5---5-5---5-5---------------------------|

e|---------------------------|
B|--7tr---9tr---10tr---12tr--|
G|---------------------------|
D|---------------------------|x16
A|---------------------------|
E|---------------------------|

e|---------------------------------|
B|---------------------------------|
G|---------------------------------|
D|---------------------------------|
A|--8~----5-5-5-5-5-5-5-5-5-5-5-5--|
E|--6~----3-3-3-3-3-3-3-3-3-3-3-3--|

e|------------------------------------------------------------|
B|------------------------------------------------------------|
G|------------------------------------------------------------|
D|---------------------------7-7-7-7-7-7-7-7-7-7-7-7-7-7-7-7--|
A|--7-7-7-7-7-7-7-7-7-7-7-7--5-5-5-5-5-5-5-5-5-5-5-5-5-5-5-5--|
E|--5-5-5-5-5-5-5-5-5-5-5-5-----------------------------------|

e|---------------------------|
B|--7tr---9tr---10tr---12tr--|
G|---------------------------|
D|---------------------------|x12
A|---------------------------|
E|---------------------------|

e|---------------------|
B|--10tr---14tr---15~--|
G|---------------------|
D|---------------------|
A|---------------------|
E|---------------------|

e|---------------------|
B|---------------------|
G|---------------------|
D|-----------------7~--|
A|--8~---5~---7~---5~--|
E|--6~---3~---5~-------|

That's it, if there are anything to say please comment. 
I will appreciate any  corrections, compliments or insults.
Tap to rate this tab
# A B C D E F G H I J K L M N O P Q R S T U V W X Y Z