Song name
# A B C D E F G H I J K L M N O P Q R S T U V W X Y Z

Tina Dickow - In The Red tab

Tab by: Casper Panduro/P@nduro.dk/2005
www.tinadickow.com - the Tina Dickow tab page

IN THE RED
Tina Dickow


Tuning: D A D G B E - (drop D)


Voicing:

Intro:

  Dadd9                  Gadd9
e-------------------------------------------|
b--3----------------------------------------|
g--2----------------------------------------|
d--0--4-4-5-4---5-4-0-----5--7-5----5-4-----|
a--0------------------0---5-----5------5----|
e--0----------------------5------5------5---|
  Let ring...


Verse:

   Em7  Fadd9  Cadd9
e--------------------|
b--3-----3------3----|
g--0-----0------0----|
d--2-----3------2----|
a---------------3----|
e--2-----3-----------|


Chorus:


   Em7  Aadd9  G5  Aadd9
e------------------------|
b--3-----0-----3----0----|
g--0-----2-----0----2----|
d--2-----2-----5----2----|
a--------0----------0----|
e--2-----------5---------|

   Em7  Bm7   Aadd9  G5
e------------------------|
b--3-----3-----0-----3---|
g--0-----2-----2-----0---|
d--2-----0-----2-----5---|
a--------2-----0---------|
e--2-----------------5---|

   G5  Aadd9  D/f#  G5
e------------------------|
b--3-----0-----3----3----|
g--0-----2-----2----0----|
d--5-----2-----4----5----|
a--------0---------------|
e--5-----------4----5----|

   Em7  Bm7   Aadd9  G5
e------------------------|
b--3-----3-----0-----3---|
g--0-----2-----2-----0---|
d--2-----0-----2-----5---|
a--------2-----0---------|
e--2-----------------5---|


Outro:

   Em7   G5   Aadd9
e--------------------|
b--3-----3------0----|
g--0-----0------2----|
d--2-----5------2----|
a---------------0----|
e--2-----5-----------|

IN THE RED
Tina Dickow


1. verse:
           Dadd9                         Gadd9
It doesnt matter where youve been  how far
           Dadd9                 Gadd9
It doesnt matter how run down you are
              Dadd9                      Gadd9
Or if theres nothing perfect left in your heart
       Em7                                         Fadd9                Cadd9     Dadd9  
 Gadd9
No, it all means nothing, it all means nothing, it all means nothing at all, at all


2. verse:
Ive told you every selfish lie I know
Ive taken falls from dizzy heights - Ive let go
But there is a simple truth to find below
Where it all means nothing, it all means nothing, it all means nothing at all, at all


Chorus:
           Em7      Aadd9
Im on the edge for you
          G5       Aadd9
Losing my head for you
           Em7     Bm7
Im in the red for you
  Aadd9    G5
Tonight, tonight
         G5         Aadd9
Until my hopes fall through
                D/f#       G5
Theres nothing else I can do
           Em7     Bm7
Im in the red for you
Aadd9
Tonight, tonight
G5                Dadd9   Gadd9
Im on a rescue

3. verse:
Love is a thousand shades of grey  and we know
Theres not a safe or certain way to go
But when weve seen all, uneasiness and hate, it will show
That it all means nothing, it all means nothing, it all means nothing at all, at all

Chorus:
Im on the edge for you
Losing my head for you
Im in the red for you
Tonigh, tonight
Until my hopes fall through
Theres nothing else I can do
Im in the red for you
Tonight, tonight
         G5         Aadd9
Until my hopes fall through
                D/f#       G5            Em7     Bm7
Theres nothing else I can do Im in the red for you
Aadd9
Tonight

Outro:
                  Em7   G5   Aadd9   ad lib...
Im on a rescue....

Tab by: Casper Panduro/P@nduro.dk/2005
www.tinadickow.com - the Tina Dickow tab page
Tap to rate this tab
# A B C D E F G H I J K L M N O P Q R S T U V W X Y Z