Guitaretab - guitar tabs
Song name
# A B C D E F G H I J K L M N O P Q R S T U V W X Y Z

Titiyo - Come Along tab

Titiyo Ė Come along

Intro:
e|---------------|---------------|
b|---------------|---------------|
G|*-------5------|----------5---*| repeat 3x
D|*3----/6------3|-----/8\6-----*| 
A|-3----/6------3|-----/8\6------|
E|---------------|---------------|

Verse:
e|---------------|---------------|
b|---------------|---------------|
G|*-------5------|----------5---*| 3x
D|*3----/6------3|-----/8\6-----*| 
A|-3----/6------3|-----/8\6------|
E|---------------|---------------|

e---------------|---------------|
b-/6------------|---------------|
G-/6-----/5-----|-------------5-|
D-/6-----/6----3|--------/8\6---| 
A--------/6----3|--------/8\6---|
E---------------|---------------|

Chorus:
e|---------------|---------------|
b|---------------|---------------|
G|*-------5------|----------5---*| 4x
D|*3----/6------3|-----/8\6-----*| 
A|-3----/6------3|-----/8\6------|
E|---------------|---------------|

Bbm               Eb
  Come along now, come along with me
Ab	   C#maj7
  And Iíll ease your pain
Bbm           Eb
  Come along, Come along with me
Ab          C#maj7
  And letís seize this day
Bbm           Eb     Edim      Fm	    
  Come along, come along with me
[ Tab from: http://www.guitaretab.com/t/titiyo/34341.html ]
2 bars rest:
e---------------|---------------|
b---------------|---------------|
G---------------|---------------| 
D---------------|---------------| 
A---------------|---------------|
E---------------|---------------|

Repeat Verse
Repeat Chorus

Bridge, Guitar solo (mild overdrive):
e---10b11-------|---------------|
b---------12b10-|-9~------------|
G---------------|---10========--|
D---------------|---------------| 
A---------------|---------------|
E---------------|---------------|

E|-------11----8-------|-------11----8-------|
B|-9--------/9---11-8--|-9--------/9---11----|
G|*--10----------------|---10---------------*| 2x
D|*--------------------|--------------------*|
A|---------------------|---------------------|
E|---------------------|---------------------|

Outro (chorus):
e|---------------|---------------|
b|---------------|---------------|
G|*-------5------|----------5---*| 2x
D|*3----/6------3|-----/8\6-----*| 
A|-3----/6------3|-----/8\6------|
E|---------------|---------------|

Bbm               Eb
  Come along now, come along with me
Ab	   C#maj7
  And Iíll ease your pain
Bbm           Eb
  Come along, Come along with me
Ab          C#maj7
  And letís seize this day
Bbm    Eb         Edim   Fm
  Ooh, come along with me


Chords:
Bbm:  	688666
Eb: 	x68886
Ab:	466544
C#maj7:	x46564
Edim:	x7898x
Fm:	x8101098