Song name
# A B C D E F G H I J K L M N O P Q R S T U V W X Y Z

Title Fight - Be A Toy tab

Title Fight - Be A Toy
New single off “Spring Songs”, out November 12th!

Intro/Verse:
E|----------------------------------------|
B|----------------------------------------|
G|-----------------7--9--9--9--9b--9--9---|
D|--7--7--7--7--7--7--9--9--9--9b--9--9---|
A|--7--7--7--7--7--5--7--7--7--7b--7--7---|
E|--5--5--5--5--5-------------------------|

E|----------------------------------|
B|----------------------------------|
G|--4-6-6-6-6-6-7-7-7-7-7-7-7-7-----|
D|--4-6-6-6-6-6-6-6-6-6-6-6-6-6-----|
A|--2-4-4-4-4-4-5-5-5-5-5-5-5-5-----|
E|----------------------------------|

Chorus
E|-------------------------------|    |-------------------------------|
B|-------------------------------|    |-------------------------------|
G|--2-2-2-2-2--------------------|    |--4-6-6-6-6-6-6-7-7-7-7-7-7-7--|
D|--2-2-2-2-2-2-2-2-2-2-2-2-2----|x3  |--4-4-6-6-6-6-6-6-6-6-6-6-6-6--|
A|--0-0-0-0-0-2-2-2-2-2-2-2-2----|    |--2-4-4-4-4-4-4-5-5-5-5-5-5-5--|
E|------------0-0-0-0-0-0-0-0----|    |-------------------------------|

Interlude
E|-----------------------------------|
B|-----------------------------------|
G|------------------7-7-7-7-7-7-7-7--|
D|--7-7-7-7-7-7-7-7-7-7-7-7-7-7-7-7--|
A|--7-7-7-7-7-7-7-7-5-5-5-5-5-5-5-5--|
E|--5-5-5-5-5-5-5-5------------------|

End on:
E|-------|
B|-------|
G|-------|
D|--7----|
A|--7----|
E|--5----|
Tap to rate this tab
# A B C D E F G H I J K L M N O P Q R S T U V W X Y Z