Song name
# A B C D E F G H I J K L M N O P Q R S T U V W X Y Z

Title Fight - Stab tab

-----------------------------------------------------------------------------
			           Stab - TITLE FIGHT
-----------------------------------------------------------------------------
Tabbed by: RIPsteggy

Tuning: Half Step Down


INTRO:
|------5---8h10p8---------------------------5--------------|
|--------6--------101010p888s6-6666-----6-------6----------|
|--5h7-----------------------------------------------------|
|---------------------------------7h8-8---8---8---8--------|
|----------------------------------------------------------|
|----------------------------------------------------------|

CHORDS:
|----------------------------------------------------------|
|----------------------------------------------------------|
|--------7--5----------------------------------------------|
|--7--5--7--5----3-----------------------------------------|
|--7--5--5--3----3-----------------------------------------|
|--5--3----------1-----------------------------------------|

These are the main chords used throughout the song. There are some faster parts which 
include other chords which I haven't deciphered yet.

************************************

| h   hammer-on
| p   pull-off
| s   slide

************************************
Tap to rate this tab
 
# A B C D E F G H I J K L M N O P Q R S T U V W X Y Z