Guitaretab - guitar tabs
Song name
# A B C D E F G H I J K L M N O P Q R S T U V W X Y Z

Tlc - Red Light Special tab

TLC
Red Light Special
Tuning: EADGBE (Standard)
Transcribed by Soch H.
Slash from Guns N' Roses plays this solo!!

Intro Solo:
|---------------------------------------------------------------|
|-18b20==----18b20-18-16-----------------16----16h18-----18b20~-|
|------------------------/17----/17---------17------------------|
|---------------------------------------------------------------|
|---------------------------------------------------------------|
|---------------------------------------------------------------|

|---------------------------------------------------------------|
|-18b20rp16----------------18b20=---18b20r-16----------16--18---|
|-----------17-17~----------------------------/17---------------|
|---------------------------------------------------------------|
|---------------------------------------------------------------|
|---------------------------------------------------------------|

|---------16h18~------16-15-16--16h18-16-15---------------------|
|-16--18------------------------------------16--16~-------------|
|---------------------------------------------------------------|
|---------------------------------------------------------------|
|---------------------------------------------------------------|
|---------------------------------------------------------------|


Guitar Solo: (3:31)
|-------------------------------------------------|
|------16-------18b20--18b20--18b20--18b20r-------|
|--17------17-------------------------------------|
|-------------------------------------------------|
|-------------------------------------------------|
|-------------------------------------------------|

|---------------------------------------------|
|-18-----16-------------------------16--------|
|------------17--17~~\--------15h17----17-----|
|---------------------------------------------|
|---------------------------------------------|
|---------------------------------------------|
[ Tab from: http://www.guitaretab.com/t/tlc/66205.html ]
|---------------------------------------------------|
|--16h18--18~~~----18~~~=====p16---18b20===---------|
|---------------------------------------------------|
|---------------------------------------------------|
|---------------------------------------------------|
|---------------------------------------------------|

|------------------------------------------------------|
|-18b20--18--16--18-16h18~--16-------------------------|
|--------------------------------17--17~~\-------------|
|------------------------------------------------------|
|------------------------------------------------------|
|------------------------------------------------------|

|-------------------------------------------------|
|-------16-----18b20--18b20==----18b20--18b20-----|
|-17-17----17-------------------------------------|
|-------------------------------------------------|
|-------------------------------------------------|
|-------------------------------------------------|

|-----------------------------------------------------|
|-18b20---18b20r(19)p16------------16b16.5------------|
|------------------------17--17~~---------------------|
|-----------------------------------------------------|
|-----------------------------------------------------|
|-----------------------------------------------------|

|---------------------16h18--16h18~~~--------------|
|-------------16-----------------------------------|
|----15-17-17----15--------------------------------|
|-17-----------------------------------------------|
|--------------------------------------------------|
|--------------------------------------------------|

|-16p15--16p15----15h16-15--------------18b20===\~~-|
|--------------16----------16--16~------------------|
|---------------------------------------------------|
|---------------------------------------------------|
|---------------------------------------------------|
|---------------------------------------------------|
Related for Red Light Special tab
Advertisement will be closed in 10 seconds