Song name
# A B C D E F G H I J K L M N O P Q R S T U V W X Y Z

Tlc - No Scrubs tab

Artist: TLC
-Album: Fanmail
--Song: No Scrubs
---Tab: #3

Transcribed by Exo M7.

For questions/comments/tab requests, the email is jd0922@yahoo.com.

The other two tabs for this are just a little off. This is note-for-note on the song...

Tune all strings down 1/2 step.

1st:-------1---------0--------------------0--|
2nd:-----3---------1----------3--------1-----|
3rd:---2---------2-------------------2-------|
4th:-0----------------------2----------------|
5th:-----------0----------2--------0---------|
6th:--------------------0--------------------|

1st:-------1---------0-----------3-1-0---0---|
2nd:-----3---------1----------3--------3-----|
3rd:---2---------2---------------------------|
4th:-0----------------------2----------------|
5th:-----------0----------2--------0---------|
6th:--------------------0--------------------|

Rest of the song is nothing too challenging.
Tap to rate this tab
# A B C D E F G H I J K L M N O P Q R S T U V W X Y Z