Song name
# A B C D E F G H I J K L M N O P Q R S T U V W X Y Z

Tm Revolution - Resonance tab

hihi ppl this is my first time tabbing something =D

e|----------------------------------|
B|----------------------------------|
G|--6-6-----------------------------|
D|--6-6---7-7---9-9-----------------|
A|--4-4---7-7---9-9-----------------|
E|--------5-5---7-7-----------------|


  Play this 3 times
e|----------------------------------|
B|----------------------------------|
G|----------------------------------|
D|----------------------------------|
A|----------------------6-----------|
E|--2-4-5-7-6-7-9-6-8-9---9-8-6-----|


  and then this
e|----------------------------------|
B|----------------------------------|
G|----------------------------------|
D|----------------------------------|
A|----------------------------------|
E|--2-4-5-7-6-7-9-------------------|


http://www.tm-revolution.com/
Tap to rate this tab
 
# A B C D E F G H I J K L M N O P Q R S T U V W X Y Z