Song name
# A B C D E F G H I J K L M N O P Q R S T U V W X Y Z

To My Surprise - In The Mood tab

Help us improve GuitareTab! Take a short survey!
-----------------------------------------------------------------------------
			     In the mood - To my surprise
-----------------------------------------------------------------------------
Tabbed by:
Email:Roy_h@hotmail.com

Tuning: EADGBe

Chorus:                                                                    X4
e|--------------------------------------------------------------------------|
B|--------------------------------------------------------------------------|
G|--------------------------------------------------------------------------|
D|----22225522--2-222-------------------------------------------------------|
A|----22225522--2-222-------------------------------------------------------|
E|----00003300--0-000-------------------------------------------------------|
          ..      ...
Verse:         
e|--------------------------------------------------------------------------|
B|--------------------------------------------------------------------------|
G|--------------------------------------------------------------------------|
D|--2----2----2----2----2----2----2----2----2----2----2----2----2----2------|
A|--2----2----2----2----2----2----2----2----2----2----2----2----2----2------|
E|--0--0-0--0-0--0-0--0-0--0-0--0-0--0-0--0-0--0-0--0-0--0-0--0-0--0-0------|
       .    .    .    .    .    .    .    .    .    .    .    .    .    
e|--------------------------------------------------------------------------|
B|--------------------------------------------------------------------------|
G|--------------------------------------------------------------------------|
D|----2----2-----------------------------------------------------------------
A|----2----2----------------------------------------------------------------|
E|--0-0--0-0----------------------------------------------------------------|
    .    .
Chorus:                                                                    X4
e|--------------------------------------------------------------------------|
B|--------------------------------------------------------------------------|
G|--------------------------------------------------------------------------|
D|----22225522--2-222-------------------------------------------------------|
A|----22225522--2-222-------------------------------------------------------|
E|----00003300--0-000-------------------------------------------------------|
          ..      ...
Verse:
e|--------------------------------------------------------------------------|
B|--------------------------------------------------------------------------|
G|--------------------------------------------------------------------------|
D|----2----2----2----2----2----2----2----2----2-----------------------------|
A|----2----2----2----2----2----2----2----2----2-----------------------------|
E|----0--0-0--0-0--0-0--0-0--0-0--0-0--0-0--0-0-----------------------------|
         .    .    .    .    .    .    .    .

Chorus:                                                                    X8
e|--------------------------------------------------------------------------|
B|--------------------------------------------------------------------------|
G|--------------------------------------------------------------------------|
D|----22225522--2-222-------------------------------------------------------|
A|----22225522--2-222-------------------------------------------------------|
E|----00003300--0-000-------------------------------------------------------|
          ..      ...      

solo: The solo is played by both guitars. Could only figure on of them.
e|--------------------------------------------------------------------------|
B|--------------------------------------------------------------------------|
G|--------------------------------------------------------------------------|
D|--------------------------------------------------------------------------|
A|---3-3---3-3---33---3-3-5-7-00-3-3---33---3-3-5-7-00-3-3---33---3-3-5-7-00|
E|-------5-----5----5--5-------------5----5--5-------------5----5--5--------|

e|--------------------------------------------------------------------------|
B|--------------------------------------------------------------------------|
G|--------------------------------------------------------------------------|
D|--------------------------------------------------------------------------|
A|--3-3---33---3-3-5-7-00--3-3-3-3-3----------------------------------------|
E|------5----5--5-----------------------------------------------------------|

Verse: Strange rhythm. Listen to the song.
e|--------------------------------------------------------------------------|
B|--------------------------------------------------------------------------|
G|--------------------------------------------------------------------------|
D|----22222---------------------22222------------------22222----------------|
A|----22222---------------------22222------------------22222----------------|
E|----00000---------------------00000------------------00000----------------|
      .....                     .....                       .....

Chorus:                                                                   X14
e|--------------------------------------------------------------------------|
B|--------------------------------------------------------------------------|
G|--------------------------------------------------------------------------|
D|----22225522--2-222-------------------------------------------------------|
A|----22225522--2-222-------------------------------------------------------|
E|----00003300--0-000-------------------------------------------------------|
          ..      ...


| /  slide up
| \  slide down
| h  hammer-on
| p  pull-off
| ~  vibrato
| +  harmonic
| x  Mute note
=============================================================================
Related for In The Mood tab