Song name
# A B C D E F G H I J K L M N O P Q R S T U V W X Y Z

Toad The Wet Sprocket - Stupid tab

Stupid
  By Toad The Wet Sprocket off "Dulcinea"
  Transcribed by: Walter Tien
  Suggestions from: Michael A. Mazur  and Scott975@aol.com


Verse:

D Cadd9 D Cadd9
D Cadd9 D Cadd9
D Cadd9 D C
D Cadd9 G C


Chorus:

-----------|-----------------|
--2--2--1--|-----------------|
--0--0--0--|-------0------0--|
--2--2--2--|-----2------2----|
--0--0--0--|--/4------3------|
-----------|-----------------|

-----------|-----------------|
--0--0--0--|-----------------|
--2--2--1--|-------0------0--|
--0--0--0--|-----2------2----|
--2--2--2--|--/4------3------|
-----------|-----------------|

-------------------|
----3------3----3--|
------2------2--0--|
--0-------------2--|
---------4------3--|
-------------------|

--3--2h3--0------|
--3--3------3----|
--0--2--------0--|
--0--0-----------|
--2--------------|
--3--------------|


Bridge

Em D Dsus4 A


Solo

----------------8----------------------------|
--/7---7-8-10-----10-------7h8p7-------------|
--/7---7-------------8-7---7-----7--5p4p5/7--|
--/7-----------------------------------------|
---------------------------------------------|
---------------------------------------------|

-------------------------------------------------------------|
----------------------------7h8p7--7h8p7-----7-5-------------|
------------------5h7-7-----7------------7-------7--5-5-4-2--|
--7-(9)-10-10-7---------7------------------------------------|
-------------------------------------------------------------|
-------------------------------------------------------------|

Cadd9 G
Tap to rate this tab
# A B C D E F G H I J K L M N O P Q R S T U V W X Y Z