Song name
# A B C D E F G H I J K L M N O P Q R S T U V W X Y Z

Toby Keith - Whos Your Daddy tab


e----------------------------0----------0------------------------4-3-2-0---|
B--1h2-3-2---2-3-1-2-----3h4---4-0--------4-0------3-3---------------------|
G----------2----------2------------3-2-------------2-2---4p2---2-----------|
D----------------------------------------------3/4-----4-----4-------------|
A--------------------------------------------------------------------------|
E--------------------------------------------------------------------------|

                    | 1.             | |2.            |
e-------2-----2-----------------0-------------0--------|
B---1h2---1h2---0---3-2-1-------0--1----------0--------|
G--------------------------0h1----------------1--------|
D------------------------------------------------------|
A------------------------------------------------------|
E------------------------------------------------------|
Tap to rate this tab
# A B C D E F G H I J K L M N O P Q R S T U V W X Y Z