Song name
# A B C D E F G H I J K L M N O P Q R S T U V W X Y Z

Toby Keith - Red Solo Cup tab

e|---3-3--1-1-0--1--0---2|
B|----------------------3|
G|----------------------2|
D|-----------------------|
A|-----------------------|
E|-----------------------|



e|---3-3--1-1-0--1--0---2|
B|----------------------3|
G|----------------------2|
D|-----------------------|
A|-----------------------|
E|-----------------------|



e|---3--7-------------|
B|---------5----------|
G|------------5-------|
D|--------------------|
A|--------------------|
E|--------------------|


e|---3--7-------------|
B|---------5----------|
G|------------5-------|
D|--------------------|
A|--------------------|
E|--------------------|


e|--------------------|
B|--------------------|
G|--------------------|
D|-9---9---9---9----7-|
A|--------------------|
E|--------------------|



e|--------------------|
B|--------------------|
G|------------------7-|
D|-9---9---9----9-----|
A|--------------------|
E|--------------------|

Tap to rate this tab
 
# A B C D E F G H I J K L M N O P Q R S T U V W X Y Z