Song name
# A B C D E F G H I J K L M N O P Q R S T U V W X Y Z

Todd Agnew - Grace Like Rain tab

Intro/Verses:

e-----------------------------------------------------------|
B------------1--------------------1--------------------1----|
G---------2-----2--------------2-----2--------------0-------|
D------2-----------2--------3-----------3--------2----------|
A---0-----------------0--0-----------------0--3-------------|
E-----------------------------------------------------------|

e-----------------------------------|
B---------------------0-------------|
G---0--------------0-----0----------|
D------2--------0-----------0-------|
A---------3--2-----------------2----|
E-----------------------------------|


Chorous:
Am      F                C                      G
   Halleluja  Grace like rain      falls down on me
Am       F                 C                     G
   Halleluja   and all my stains   are washed away they're washed away

Instumental:

Am | F | Am | F | Am | F | Am | D | Am | D | Am | D | Am | D | F
Tap to rate this tab
# A B C D E F G H I J K L M N O P Q R S T U V W X Y Z