Song name
# A B C D E F G H I J K L M N O P Q R S T U V W X Y Z

Todd Snider - Enough tab

Heres Enough by Faker, no one had it so id thought id do it :)

Intro

Guitars 1 and 2

E |-------------------------------------------------|
B |-------------------------------------------------|
G |-------------------------------------------------|
D |--9-----9-----9--9--9--9--9-9-9--9--9--9---9-----|
A |--7-----7-----7--7--7--7--7-7-7--7--7--7---7-----|
E |--0-----0-----0--0--0--0--0-0-0--0--0--0---0-----|

Pre Verse

Guitar 1

E|-------------------------|
B|-------------------------|
G|--9--9--12-12--7-5-5--5--|        Repeat
D|--9--9--12-12--7-5-5--5--|            x8
A|--7--7--10-10--5-3-3--3--|
E|-------------------------|

Guitar 2

E|--------------------------------------------|
B|--12--8---12--8-------12--8----12--8--------|
G|--------9-------9-----------9--------9------|
D|--------------------------------------------|
A|--------------------------------------------|
E|--------------------------------------------|
                                                                                         
                                Repeat
E|--------------------------------------------|                  x2
B|--12--8---12--8-------12--8-----------------|
G|--------9-------9-----------9---9-----------|
D|--------------------------------------------|
A|--------------------------------------------|
E|--------------------------------------------|


Verse

Guitars 1 and 2

E|-------------------------|
B|-------------------------|
G|--9--9--12-12--7-5-5--5--|    Repeat
D|--9--9--12-12--7-5-5--5--|      x7
A|--7--7--10-10--5-3-3--3--|
E|-------------------------|

E|-------------------------|
B|-------------------------|
G|--9--9--12-12--7---5---5-|
D|--9--9--12-12--7---5---5-|
A|--7--7--10-10--5---3---3-|
E|-------------------------|


Chorus

Guitars 1 and 2

E|---------------------------------|
B|---------------------------------|
G|--7--7---10--10---12--12---5--5--|
D|--7--7---10--10---12--12---5--5--|       Repeat
A|--5--5---8----8---10--10---3--3--|           x2
E|---------------------------------|

Repeat Pre Verse Again


Chorus


Intro

All the information should be there you just need to listen to the song and work out the 
any inquires email me at dix-neuf_vingt_vingt@hotmail.com Enjoy! :)
Tap to rate this tab
# A B C D E F G H I J K L M N O P Q R S T U V W X Y Z