Todos Tus Muertos - Tu Alma Mia Adelita tab

e---7---7---7---7---7------3------5------5/7----------|
B---8---8---8---8---8------5------7------7/8----------|
G-----------------------------------------------------|
D-----------------------------------------------------|
A-----------------------------------------------------|
E-----------------------------------------------------|  x2

e---8--10---8---6---7---6---5-----------------7---8---7---5---6---5---4--|
B--10--10--10---8---9---8---7-----------------8---8---8---7---8---7---6--|
G------------------------------------------------------------------------|
D------------------------------------------------------------------------|
A------------------------------------------------------------------------|
E------------------------------------------------------------------------|

e---2---3---4---3---2---3---2---3---0--------|
B---4---5---6---5---4---5---4---5---0--------|
G-----------------------------------0--------|
D-----------------------------------0--------|
A-----------------------------------0--------|
E-----------------------------------0--------|
Tap to rate this tab
 
# A B C D E F G H I J K L M N O P Q R S T U V W X Y Z