Song name
# A B C D E F G H I J K L M N O P Q R S T U V W X Y Z

Tokio Hotel - Black tab

Help us improve GuitareTab! Take a short survey!
----------------------------------------------------------------------------
                            BLACK - Tokio Hotel
----------------------------------------------------------------------------

e-mail: avrill_xx@yahoo.com

capo on the 3rd fret

INTRO + VERSE
e|--0--------3----------------|
B|--1-----0--0-----------0----|
G|--0-----0--0-----------0----| 
D|--2-----2--0-----------2----|  x10
A|--3-----2--2-----------2----|
E|--------0--3---3-3-2---0----|

 PRE-CHORUS
e|--0-00000--0-000000---------|
B|--1-11111--0-000000---------|
G|--0-00000--0-000000---------|
D|--2-22222--2-222222---------|
A|--3-33333--2-222222---------|
E|----------------------------|


CHORUS
e|--0--0-0--0-0--0--0-0-0-0-0-0---|
B|--3--3-3--1-1--0--0-0-0-0-0-0---|
G|--2--2-2--2-2--0--0-0-0-0-0-0---|
D|--0--0-0--2-2--2--2-2-2-2-2-2---|
A|----------0-0--2--2-2-2-2-2-2---|
E|---------------0--0-0-0-0-0-0---|

e|--0--0-0--0-0--0--0-0-0-0-0-0---|
B|--3--3-3--1-1--0--0-0-0-0-0-0---|
G|--2--2-2--0-0--0--0-0-0-0-0-0---|
D|--0--0-0--2-2--2--2-2-2-2-2-2---| 
A|----------3-3--2--2-2-2-2-2-2---|
E|---------------0--0-0-0-0-0-0---|


e|--0--0-0--0-0--0--0-0-0-0-0-0---|
B|--3--3-3--1-1--0--0-0-0-0-0-0---|
G|--2--2-2--2-2--0--0-0-0-0-0-0---|
D|--0--0-0--2-2--2--2-2-2-2-2-2---|
A|----------0-0--2--2-2-2-2-2-2---|
E|---------------0--0-0-0-0-0-0---|

e|--0-0-0-0-0-0-0--0-0-0-0-0-0-0--|
B|--1-1-1-1-1-1-1--0-0-0-0-0-0-0--|
G|--0-0-0-0-0-0-0--0-0-0-0-0-0-0--|
D|--2-2-2-2-2-2-2--2-2-2-2-2-2-2--|
A|--3-3-3-3-3-3-3--3-3-3-3-3-3-3--|
E|--------------------------------|
VERSE

e|--0--------3----------------|
B|--1-----0--0-----------0----|
G|--0-----0--0-----------0----| 
D|--2-----2--0-----------2----|  x8
A|--3-----2--2-----------2----|
E|--------0--3---3-3-2---0----|


 PRE-CHORUS
e|--0-00000--0-000000---------|
B|--1-11111--0-000000---------|
G|--0-00000--0-000000---------|
D|--2-22222--2-222222---------|
A|--3-33333--2-222222---------|
E|----------------------------|


CHORUS
e|--0--0-0--0-0--0--0-0-0-0-0-0---|
B|--3--3-3--1-1--0--0-0-0-0-0-0---|
G|--2--2-2--2-2--0--0-0-0-0-0-0---|
D|--0--0-0--2-2--2--2-2-2-2-2-2---|
A|----------0-0--2--2-2-2-2-2-2---|
E|---------------0--0-0-0-0-0-0---|

e|--0--0-0--0-0--0--0-0-0-0-0-0---|
B|--3--3-3--1-1--0--0-0-0-0-0-0---|
G|--2--2-2--0-0--0--0-0-0-0-0-0---|
D|--0--0-0--2-2--2--2-2-2-2-2-2---| 
A|----------3-3--2--2-2-2-2-2-2---|
E|---------------0--0-0-0-0-0-0---|


e|--0--0-0--0-0--0--0-0-0-0-0-0---|
B|--3--3-3--1-1--0--0-0-0-0-0-0---|
G|--2--2-2--2-2--0--0-0-0-0-0-0---|
D|--0--0-0--2-2--2--2-2-2-2-2-2---|
A|----------0-0--2--2-2-2-2-2-2---|
E|---------------0--0-0-0-0-0-0---|

e|--0-0-0-0-0-0-0--0-0-0-0-0-0-0--|
B|--1-1-1-1-1-1-1--0-0-0-0-0-0-0--|
G|--0-0-0-0-0-0-0--0-0-0-0-0-0-0--|
D|--2-2-2-2-2-2-2--2-2-2-2-2-2-2--|
A|--3-3-3-3-3-3-3--3-3-3-3-3-3-3--|
E|--------------------------------|


 POST CHORUS + BRIDGE
e|--0--------3----------------|
B|--1-----0--0-----------0----|
G|--0-----0--0-----------0----| 
D|--2-----2--0-----------2----|  x8
A|--3-----2--2-----------2----|
E|--------0--3---3-3-2---0----|


 PRE-CHORUS
e|--0-00000--0-000000---------|
B|--1-11111--0-000000---------|
G|--0-00000--0-000000---------|
D|--2-22222--2-222222---------|
A|--3-33333--2-222222---------|
E|----------------------------|
 

CHORUS
e|--0--0-0--0-0--0--0-0-0-0-0-0---|
B|--3--3-3--1-1--0--0-0-0-0-0-0---|
G|--2--2-2--2-2--0--0-0-0-0-0-0---|
D|--0--0-0--2-2--2--2-2-2-2-2-2---|
A|----------0-0--2--2-2-2-2-2-2---|
E|---------------0--0-0-0-0-0-0---|

e|--0--0-0--0-0--0--0-0-0-0-0-0---|
B|--3--3-3--1-1--0--0-0-0-0-0-0---|
G|--2--2-2--0-0--0--0-0-0-0-0-0---|
D|--0--0-0--2-2--2--2-2-2-2-2-2---| 
A|----------3-3--2--2-2-2-2-2-2---|
E|---------------0--0-0-0-0-0-0---|


e|--0--0-0--0-0--0--0-0-0-0-0-0---|
B|--3--3-3--1-1--0--0-0-0-0-0-0---|
G|--2--2-2--2-2--0--0-0-0-0-0-0---|
D|--0--0-0--2-2--2--2-2-2-2-2-2---|
A|----------0-0--2--2-2-2-2-2-2---|
E|---------------0--0-0-0-0-0-0---|

e|--0-0-0-0-0-0-0--0-0-0-0-0-0-0--|
B|--1-1-1-1-1-1-1--0-0-0-0-0-0-0--|
G|--0-0-0-0-0-0-0--0-0-0-0-0-0-0--|
D|--2-2-2-2-2-2-2--2-2-2-2-2-2-2--|
A|--3-3-3-3-3-3-3--3-3-3-3-3-3-3--|
E|--------------------------------|

repeat and end with this: 

e|--0-0-0-0-0-0-0--0-0-0-0-0-0-0--1-|
B|--1-1-1-1-1-1-1--0-0-0-0-0-0-0--0-|
G|--0-0-0-0-0-0-0--0-0-0-0-0-0-0--0-|
D|--2-2-2-2-2-2-2--2-2-2-2-2-2-2--2-|
A|--3-3-3-3-3-3-3--3-3-3-3-3-3-3--3-|
E|----------------------------------|

Related for Black tab