Song name
# A B C D E F G H I J K L M N O P Q R S T U V W X Y Z

Tokyo Rose - Spectacle tab

Intro

Guitar 1

Eb]--------------------------------------------------------------------------------------|
Bb]-------7-10-7-0-7-10-7-0---0-5-7-5----------------------------------------------------|
Gb]-----------------------------------------7-6-7----------------------------------------|(x6)
Db]--------------------------------------------------------------------------------------|
Ab]--------------------------------------------------------------------------------------|
Db]--------------------------------------------------------------------------------------|

Guitar 2

Wait (x2)

Eb]--------------------------------------------------------------------------------------|
Bb]--------------------------------------------------------------------------------------|
Gb]---------------------14-14-14-14-14-14-14-14------------------------------------------|
Db]----------------------------------------------------------2-2--2--2-2-----------------|
Ab]---------------------12-12-12-12-12-12-12-12--------------2-2--2--2-2-----------------|
Db]----------------------------------------------------------2-2--2--2-2-----------------|

Eb]--------------------------------------------------------------------------------------|
Bb]--------------------------------------------------------------------------------------|
Gb]---------------------14-14-14-14-14-14-14-14------------------------------------------|
Db]----------------------------------------------------------7-7--7--7-7-----------------|(x2)
Ab]---------------------12-12-12-12-12-12-12-12--------------7-7--7--7-7-----------------|
Db]----------------------------------------------------------7-7--7--7-7-----------------|

I know the whole song by heart, but Iím just too lazy to tab it all. This is also my
tab so please rate it. Itís easy to figure out the rest of the song. All you need to do is
the right tuning for your guitar which I have provided. There is a tricky chord at the 
so I might as well tab it for you now.

Bridge

Both Guitars

Eb]-----------------------------------5---------------------------------------------------|
Bb]-----------------------------0-5-7---0-5-7-5-------------------------------------------|
Gb]----------------------------------------------7-6-7------------------------------------|(x6)
Db]---------11--11--11--12----------------------------------11--11--11--12----12~~~-------|
Ab]----------7---7---7---9-----------------------------------7---7---7---9-----9~~~-------|
Db]----------7---7---7---9-----------------------------------7---7---7---9-----9~~~-------|

Hope you Enjoy!
Tap to rate this tab
# A B C D E F G H I J K L M N O P Q R S T U V W X Y Z