Song name
# A B C D E F G H I J K L M N O P Q R S T U V W X Y Z

Tolidos - Ado tab

Help us improve GuitareTab! Take a short survey!
 esta tab va dedicada a karoliina!ke_la_kiero_un_chingo
y staaa bien bonitaaa =P!
(shewas_toluk)yeei (la tab fue echa por hugo yo le agregue mamadas)
-----[Tolidos - ADO]---------------------------------------------------------

[empieza la guitarra 1, x2 veces]
Intro guitarra 1((con bastante distorcion))*
e--------------------------| |e------------------------------|
B--------------------------| |B------------------------------|
G--------------------------| |G------------------------------|
D---6-5-1-1h3---6-5-1-5-6--| |D---6-5-1-1h3---6-5-1/-5-5-6-6-| (esto va en la
A-4-----------6------------| |A-4-----------6----------------|     ultima vez)
E--------------------------| |E------------------------------|

Guitarra 2
e-------------------------|
B-------------------------|
G-66666-------------------|
D-66666-66666-44444444----|
A-44444-66666-44444444----| ((despues de un tiempo se detiene
E-------44444-22222222----|    la guitarra 2 y sigue tokando la 1))

luego cambia de ritmo las dos guitarras hacen esto
e-----------------------------|
B-----------------------------|
G-66666-------88888-----------|
D-66666-66666-88888-44-6-4----|
A-44444-66666-66666-44-6-4----|
E-------44444-------22-4-2----|

e-------------------5-4-5-4-5-4-5--|
B----------------------------------|
G-66666----------------------------|
D-66666-66666-44444----------------|
A-44444-66666-44444----------------|
E-------44444-22222----------------|
              ***** * * * * * * *

e------------------------------|
B------------------------------|
G-66666----------88888---------|
D-66666-66666----88888-44-6-4--|
A-44444-66666----66666-44-6-4--|
E-------44444----------22-4-2--|
              / <-(se paran, luego siguen)

e-------------------------------|
B-------------------------------|
G-66666-------------------------|
D-66666-66666-44444444--6~-4~---|
A-44444-66666-44444444------4~--|
E-------44444-22222222----------|
              ********
(luego se queda el bajo solo)

Verso*
e---------------------------|
B---------------------------|
G-6-6666--------------------|
D-6-6666-6-6666-2-4444444---| x 4 ((hasta donde dice: ya mi amor porti es
A-4-4444-6-6666-2-4444444---|       kreoo lo ke ah acabADO))
E--------4-4444-2-2222222---|
    ****   ****   *******

e-----------------------------|
B-----------------------------|
G-66666-------88888-----------|
D-66666-66666-88888-44-6-4----|
A-44444-66666-66666-44-6-4----|
E-------44444-------22-4-2----|

e-------------------5-4-5-4-5-4-5--|
B----------------------------------|
G-66666----------------------------|
D-66666-66666-44444----------------|
A-44444-66666-44444----------------|
E-------44444-22222----------------|
              ***** * * * * * * *

e------------------------------|
B------------------------------|
G-66666----------88888---------|
D-66666-66666----88888-44-6-4--|
A-44444-66666----66666-44-6-4--|
E-------44444----------22-4-2--|
              / <-(se paran, luego siguen)

e-------------------------------|
B-------------------------------|
G-66666-------------------------|
D-66666-66666-44444444--6~-4~---|
A-44444-66666-44444444------4~--|
E-------44444-22222222----------|
              ********
(luego se keda otra ves el bajo)

VERSO*(pero no lleva palm mute)

(va al final de este verso)

e-----------------------------|
B-----------------------------|
G-----------------------------|
D-----------------------------|
A-4-6-4-2-2-4-4-2-2/4/6-0-2---|
E---------------------------4-|

e-------------------------------------------|
B-------------------------------------------|
G-6-6666--------8-8888-10-11-111111---------|
D-6-6666-6-6666-8-8888-10-11-111111-6-4-6---| x 2
A-4-4444-6-6666-6-6666-8--9--9-9-9--6-4-6---|
E--------4-4444---------------------4-2-4---|
    ****   ****   ****       *****
(luego entra la otra guitarra haciendo lo mismo de arriba)

Cuando te conosii...
e----------------------------------------|
B----------------------------------------|
G-66666-------88888-10-11-111111---------|
D-66666-66666-88888-10-11-111111-6-4-6---| x 2
A-44444-66666-66666-8--9--9-9-9--6-4-6---|
E-------44444--------------------4-2-4---|

ai taa pues la tab ADO de cuando eran los ultra tolidos jaja ea la sako el hugo =) yo la 
y asi kedo shido ai la chivs saludos al twin ala gab,shar,chumel,oscarito y todo los 
weies
Related for Ado tab