Song name
# A B C D E F G H I J K L M N O P Q R S T U V W X Y Z

Tom Cloud - Was It Worth It tab

http://www.tom-cloud.com/

Tom Cloud - Was It Worth It?

e|--12--14--10--12--14--15--14--10--12--12--14--15--14--12--15--14--15--14--10--12--|
B|----------------------------------------------------------------------------------|
G|----------------------------------------------------------------------------------|
D|----------------------------------------------------------------------------------|
A|----------------------------------------------------------------------------------|
E|----------------------------------------------------------------------------------|

bassline:
e|-----------------------|
B|-----------------------|
G|-----------------------|
D|--2--------------------|
A|-----0--2--3--2-----2--|
E|-----------------3-----|


~~~~
tabbed by MaciekHTD

Tap to rate this tab
# A B C D E F G H I J K L M N O P Q R S T U V W X Y Z