Song name
# A B C D E F G H I J K L M N O P Q R S T U V W X Y Z

Tom Frager - Give Me That Love tab

Tom Frager : Give me That Love
Intro :

CAPO : 4

E|---------------------|--------------2--------|
B|----7------7--5-----5|------3---2-3----3---3-|
G|------7---------6----|--------4----------4---|x2
D|--------7---------7--|-----------------------|
A|---------------------|-----------------------|
E|---------------------|-----------------------|


Outro :

E|---------------------------------|-
B|--7------8s10s8--7~~-------------|-
G|----7----9s11s9--7~~-------------|-                                      D|------7--------------------------|-
A|---------------------------------|-
E|---------------------------------|-


Le couplet :

D - A - Bm - G ( En barré bien sur)
Tap to rate this tab
# A B C D E F G H I J K L M N O P Q R S T U V W X Y Z