Song name
# A B C D E F G H I J K L M N O P Q R S T U V W X Y Z

Tom Meny - Over You tab

-----------------------------------------------------------------------------
			     OVER YOU - Tom Meny
-----------------------------------------------------------------------------
Tabbed by: Ian Ferris
Email: ianmferris@gmail.com

This is a great song by an under-appreciated aritst, Tom Meny. Ortopilot also
has a great cover of it. Tom put a tutorial video up on Youtube of how to
play this song, so if you want to check that out too, follow this link:
http://www.youtube.com/watch?v=FyF06MDbzPY
You can also check out Tom's website http://tommeny.com/ 

Tuning: DADGbd

Chords
         D*      A#*     Em*     Gm*      A      F#m*     Bm*
e|-------4--------2-------0-------0-------2-------0--------0----------------|
B|-------3--------2-------3-------0-------2-------3--------3----------------|
G|-------2--------2-------0-------2-------2-------2--------4----------------|
D|----------------2-------4-------0-------2-------4--------4----------------|
A|----------------2-------x-------x------------------------2----------------|
E|----------------4-------2-------4-----------------------------------------|

Riff
d|--2h4~~--2h4p2p0--2~~-2-2~~~--0~~-0-0~0-0~~--0-0--------------------------|
B|--2h3~~--2h3p2p0--2~~-2-2h3~--3~~-3-3~3-3~~--3-3--------------------------|
G|--2~~~~--2~~~~p0--2~~-2-2~~~--0~~-0-0~0-0~~--0-0--------------------------|
D|------------------2~~-2-2~~~--4~~-4-4~4-4~~--4-4--------------------------|
A|------------------2~~-2-2~~~--x~~-x-x~x-x~~--x-x--------------------------|
D|------------------4~~-4-4~~~--2~~-2-2~2-2~~--2-2--------------------------|


Riff x2
Verse 1
   D*           A#*     Em*
I won't shed a tear for you
     D*            A#*      Em*
If I did, I would never show it
       D*             A#*        Em*
And I won't lose any sleep over you
      D*             A#*      Em*
If I did, you would never know it


Chorus
Gm*               A
  'Cuz I'm gonna run right over
F#m*                   Em*
   The heartache and pain
Gm*             A
   I'm getting over you, today


Riff x2
Verse 2
   D*              A#*        Em*
I won't drown my sorrows for you
     D*              A#*      Em*
If I did, you would never know it
       D*          A#*       Em*
And I won't fall apart over you
      D*           A#*       Em*
If I did, I would never show it


Chorus
Gm*               A
  'Cuz I'm gonna run right over
F#m*                   Em*
   The heartache and pain
Gm*             A
   I'm getting over you, today


Riff x2
Bridge
Bm*
I'm not the guy
Em*
You saw in the movie
A
I'm not goin' out
D*
That way
Bm*
I know the game
Em*
I'm not gonna play it
A
I'm gonna be
D*
Okay


Chorus
Gm*               A
   And I'm gonna run right over
F#m*                   Em*
   The heartache and pain
Gm*             A
   I'm getting over you, today


Riff x2
Verse 3
       D*             A#*     Em*
And I won't write a song for you
     D*            A#*       Em*
If I did, I would never sing it

Tap to rate this tab
 
# A B C D E F G H I J K L M N O P Q R S T U V W X Y Z