Song name
# A B C D E F G H I J K L M N O P Q R S T U V W X Y Z

Tom Petty And The Heartbreakers - I Should Have Known It tab

Tuning: D Tuning

Intro/Verse x4
d|------------------------------------------------------------------------|
A|------------------------------------------------------------------------|
F|-------------------5-2-----------------------2~-------------------------|
C|---0---0---------------------0---0--------------------------------------|
G|-3b--3b--0---0-2-3---------3b--3b--0---0-2-3----------------------------|
D|------------------------------------------------------------------------|

Bridge x2
d|------------------------------------------------------------------------|
A|/10-10-10-10-9--9--9--8---10\-------------------------------------------|
F|/11-11-11-11-10-10-10-9---11\-------------------------------------------|
C|------------------------------------------------------------------------|
G|------------------------------------------------------------------------|
D|------------------------------------------------------------------------|

Verse x1
d|------------------------------------------------------------------------|
A|------------------------------------------------------------------------|
F|-------------------5-2-----------------------2~-------------------------|
C|---0---0---------------------0---0--------------------------------------|
G|-3b--3b--0---0-2-3---------3b--3b--0---0-2-3----------------------------|
D|------------------------------------------------------------------------|

Chorus x1
d|0--0---3-2--3-2--3-2----------------------------------------------------|
A|0--0---3-3--3-3--3-3----------------------------------------------------|
F|1--1---2-2--2-2--2-2-------------2p0------------------------------------|
C|2--2---0-0--0-0--0-0-----------------------0----------------------------|
G|2--2-----------------------0-2-3-----3p0-3---0--------------------------|
D|0--0--------------------------------------------------------------------|

Verse x3

Bridge x2

Verse x1

Chorus x1

Alt. Verse x8
d|------------------------------------------------------------------------|
A|------------------------------------------------------------------------|
F|------------------------------------------------------------------------|
C|------------------------------------------------------------------------|
G|---0---0-------------2p0------------------------------------------------|
D|-3b--3b--0-----0-2-3-----3p0--------------------------------------------|

Chorus (with variaton)
d|0--0---3-2--3-2--3-2----------------------------------------------------|
A|0--0---3-3--3-3--3-3----------------------------------------------------|
F|1--1---2-2--2-2--2-2-------------2p0------------------------------------|
C|2--2---0-0--0-0--0-0-----------------------0-------0--------------------|
G|2--2-----------------------0-2-3-----3p0-3---0---3---0------------------|
D|0--0--------------------------------------------------------------------|

Outro Riff X16

d|---3--------------------------------------------------------------------|
A|-2-3-2--3-3-2-3-2-------------------------------------------------------|
F|-2-0-2--2-2-2-2-2-------------------------------------------------------|
C|-2-0-2--2-2-2-2-2-------------------------------------------------------|
G|-0-2-0--0-0-0-0-0-------------------------------------------------------|
D|---3--------------------------------------------------------------------|

d|3-2--3-2--3-2-----3-2--3-2--3-2-----------------------------------------|
A|3-3--3-3--3-3-----3-3--3-3--3-3-----------------------------------------|
F|2-2--2-2--2-2-----2-2--2-2--2-2-----------2p0---------------------------|
C|0-0--0-0--0-0-----0-0--0-0--0-0---------------------0-------0-----------|
G|------------------------------------0-2-3-----3p0-3---0---3---0---------|
D|------------------------------------------------------------------------|
Tap to rate this tab
 
# A B C D E F G H I J K L M N O P Q R S T U V W X Y Z