Song name
# A B C D E F G H I J K L M N O P Q R S T U V W X Y Z

Tom Petty - Breakdown tab

-------------------------------------------------------------------------------
			     Breakdown - Tom Petty
-------------------------------------------------------------------------------
Tabbed by: dillon1022
Email: dillon1022@hughes.net

Tuning: standard


intro
e|------------------|
B|-10-10p8---8-10~--|
G|---------9--------|
D|------------------|
A|------------------|
E|------------------|

fill 1
e|------------------------------|----------------------||
B|-10p8-10----------------------|-10p8~-10-------------|| x2
G|---------9~-9p7-9-------------|-----------9p7~-9p7---||
D|------------------7~-7p5-7----|--------------------9-||
A|---------------------------7~-|----------------------||
E|------------------------------|----------------------||

verse
e|--------|---|-0-|
B|--------|-x7|-1-|
G|--------|---|-2-|
D|--------|---|-3-|
A|-7\5/7--|---|-3-|
E|-5\3/5--|---|-0-|

Chorus
e|-----------|---|------0--0--|
B|-----------|-x3|------1--1--|
G|-----------|---|------2--2--|
D|-----------|---|------3--3--|
A|-7-5--3-5--|---|-7-5--3--3--|
E|-5-3--1-3--|---|-5-3--0--0--|

Fill 2
e|------------------------------|----------------|
B|-10p8-10----------------------|-----5-7br-5----|
G|---------9~-9p7-9-------------|-5h7---------7~-|
D|------------------7~-7p5-7----|----------------|
A|---------------------------7~-|----------------|
E|------------------------------|----------------|

e|------------------------------|
B|-10p8-10----------------------|
G|---------9~-9p7-9-------------|
D|------------------7~-7p5-7----|
A|---------------------------7~-|
E|------------------------------|

e|-3/5-5-5-5-5-5-5-5-5-5-7-7-7-7-7-7-7-7-9-9-9-9-12-| not exact numbers,
B|-3/5-5-5-5-5-5-5-5-5-5-7-7-7-7-7-7-7-7-9-9-9-9-12-| but you get the 
G|--------------------------------------------------| idea
D|--------------------------------------------------|
A|--------------------------------------------------|
E|--------------------------------------------------|

Outro
Play the first part of the fills until song ends

***********************************************

|  h   hammer on
|  p   pull off
|  ~   vibrato
|  br  bend and release
|  \   slide down the neck
|  /   slide up the next

***********************************************
Tap to rate this tab
 
# A B C D E F G H I J K L M N O P Q R S T U V W X Y Z