Song name
# A B C D E F G H I J K L M N O P Q R S T U V W X Y Z

Tom Petty - I Should Have Known It tab

-------------------------------------------------------------------------------
			     I SHOULD HAVE KNOWN IT - Tom Petty and the Heartbreakers
-------------------------------------------------------------------------------

Tuning: Standard (EADGBe)

e|---------------------------------------------------------------------------|
B|---------------------------------------------------------------------------|
G|--------------------------------------------2b-0---------------------------|
D|---------------------------------0h3p0-------------------------------------|
A|---------3---------3-------------------------------------------------------|
E|----5b--------5b--------3~-------------------------------------------------|

e|---------------------------------------------------------------------------|
B|---------------------------------------------------------------------------|
G|---------------------------------------------0-----------------------------|
D|-------------------------------------0h3-----------------------------------|
A|------------3------------3-------------------------------------------------|
E|-----5b-----------5b----------3~-------------------------------------------|

e|---------------------------------------------------------------------------|
B|---------8-8-8-8-8-7-6------------15b--------------------------------------|
G|---------9-9-9-9-9-8-7------------17b--------------------------------------|
D|---------7-7-7-7-7-6-5-----------------------------------------------------|
A|---------------------------------------------------------------------------|
E|---------------------------------------------------------------------------|

************************************

| /   slide up
| \   slide down
| h   hammer-on
| p   pull-off
| ~   vibrato
| +   harmonic
| x   Mute note
| b   Bend
| pb  Pre-bend
| br  Bend release
| pbr Pre-bend release
| brb Bend release bend

************************************
Tap to rate this tab
# A B C D E F G H I J K L M N O P Q R S T U V W X Y Z