Song name
# A B C D E F G H I J K L M N O P Q R S T U V W X Y Z

Tom Petty - I Should Have Known It tab

Artist: Tom Petty and The Heartbreakers
Song: "You Should Have Known It"
Album: Mojo
Tuned one whole step down. DGCFAD

Intro
D|------------------------------------------------------|
A|------------------------------------------------------|
F|--------------------0---5b6-2~-----------------0---2~-|x4
C|------0-----0-----2---2------------0-----0---2---2----|
G|--3b4---3b4---0----------------3b4---3b4---0----------|
D|------------------------------------------------------|

D|-------------------------|
A|-/14141414141312--xx19\--|
F|-/12121212121110--xx17\--| x2
C|-/13131313131211--xx-----|
G|-------------------------|
D|-------------------------|


D|--------------------------------------------------------0--00--------------|
A|--------------------------------------------------------0--00--------------|
F|--------------------0---5b6-2~-----------------0---2~---1--11------7-------|
C|------0-----0-----2---2------------0-----0---2---2------2--22--5-7-5-7-5-7-|
G|--3b4---3b4---0----------------3b4---3b4---0------------2--22--3-5---5-3-5-|
D|--------------------------------------------------------0--00--------------|


Fill
D|---------------------|
A|---------------------|
F|-5p2-2---------------|
C|------5p2-2-----0----|
G|------------3b4---0--|
D|---------------------|


D|------------------------------|
A|------------------------------|
F|------------------------------|
C|----------------------5p2-----|
G|-----0-----0----0h1h2-----5p2-|
D|-3b4---3b4---0----------------|
Tap to rate this tab
 
# A B C D E F G H I J K L M N O P Q R S T U V W X Y Z