Tom Petty - Yer So Bad tab


 E ---0-0-----0-0--------------------------------------------|
 B 3\5-5-5-5/3-3-3----0---0---0------------------------------|
 G ----------------0h2-0h2-0h2-------------------------------|
 D -----------------------------2----------------------------|
 A ----------------------------------------------------------|
 E ----------------------------------------------------------|

 E ---0-0-----0-0--------------------------------------------|
 B 3\5-5-5-5/3-3-3----0---0---0------------------------------|
 G ----------------0h2-0h2-0h2--0----------------------------|
 D ----------------------------------------------------------|
 A ----------------------------------------------------------|
 E ----------------------------------------------------------|

 E ---0-0-----0-0----------------------------------------------|
 B 3\5-5-5-5/3-3-3----0---0---0------0---0-0-0---0-------------|
 G ----------------0h2-0h2-0h2----0h2-2/4-4-4-4/2----0---------|
 D -----------------------------2-----------------4p0--------0-|
 A -----------------------------------------------------0h2p0--|
 E ------------------------------------------------------------|
Tap to rate this tab
 
# A B C D E F G H I J K L M N O P Q R S T U V W X Y Z