Song name
# A B C D E F G H I J K L M N O P Q R S T U V W X Y Z

Tom Robinson Band - 2-4-6-8 Motorway tab

*-- PLEASE NOTE ------------------------------------------------------------*
* This work is simply the author's own interpretation of the named song.    *
* It should be for private/study use only.                                  *
*---------------------------------------------------------------------------*

Song: 2-4-6-8 Motorway
Artist: Tom Robinson Band
LP: Power in the Darkness
Tabber:	Roger Olofsson (raggen@passagen.se)

intro (repeat)
E---x--x--x--x--x-x--x--x-x--x------|------------------------------------|
B---2--3--2--3--2-2--3--2-2--3------|------------------------------------|
G---2--2--2--2--2-2--2--2-2--2------|------------------------------------|
D---2--4--2--4--2-2--4--2-2--4------|------------------------------------|
A---0--0--0--0--0-0--0--0-0--0------|------------------------------------|
e---x--x--x--x--x-x--x--x-x--x------|------------------------------------|


E---x----x----x----x------x-x-x-----|-x-x-x---x---x---x-x---x---x-x-x--x-|
B---2----2----2----2------5-7-5-----|-5-7-5---x---x---x-x---2---2-3-2--2-|
G---2----2----2----2------4-4-4-----|-4-4-4---2---2---4-4---2---2-2-2--2-|
D---2----2----2----2------6-6-6-----|-6-6-6---4---4---6-6---2---2-4-2--2-|
A---0----0----0----0------7-x-7-----|-7-x-7---5---5---7-7---0---0-0-0--0-|
e---x----x----x----x------x-x-x-----|-x-x-x---x---x---x-x---x---x-x-x--x-|


"Let freedom ring"

"Oh Rock of ages do not crumble love is breathing still"
"Oh Lady Moonshine down, a little people magic if you will"

This tab was created with the help of one guitar, two ears and years of
patience. This song has eluded me for years. I feel great finally 
understanding how to do it. 

E------------------------------------|-----------------------------------|
B------------------------------------|-----------------------------------|
G------------------------------------|-----------------------------------|
D------------------------------------|-----------------------------------|
A------------------------------------|-----------------------------------|
e------------------------------------|-----------------------------------|
Tap to rate this tab
# A B C D E F G H I J K L M N O P Q R S T U V W X Y Z