Song name
# A B C D E F G H I J K L M N O P Q R S T U V W X Y Z

Tom Waits - Ice Cream Man chords

Tom Waits - Ice cream man :)

	am		E

e---------------------------------------------------------|
b------1-----1--------------------------------------------|
g-----2-----2-----2-----1---------------------------------|
d----2-----2-----2------2--------------------<<<---REPEAT-|
a---0-------------------2---------------------------------|
E---------3-----1-------------0---3-----------------------|

This part is for:

   am                                           E
"I'll be clickin' by your house about two forty-five
  am                          E
Sidewalk sundae strawberry surprise,"


And also this part is for the Chorus:


"'Cause I'm the ice cream man, I'm a one-man band
I'm the ice cream man, honey, I'll be good to you.
'Cause I'm the ice cream man, I'm a one-man band
I'm the ice cream man, honey, I'll be good to you."


"--0---3--" - this part is repeated only in intro...


    am (let it ring)      dm  riff#1       E         riff#2

e-------------------------1---1-------------------------------|
b---1---------------------3-----3---3-------------------------|
g---2---------------------2-------2--------1---1---1----------|
d---2--------------------------------------2---2---2----------|
a------------------------------------------2---2---2--2-3-4---|
E-----------------------------------------------------3-4-5---|

This part is for:

         am              dm    riff#1
"I got a cherry popsicle right on time
  E          E              E    riff#2
A big stick, mamma, that'll blow your mind"


All questions on chrtanjan@gmail.com

and if anyone needs a video version of this, I would be glad to provide it... Enjoy ;)
Tap to rate this tab
 
# A B C D E F G H I J K L M N O P Q R S T U V W X Y Z