Song name
# A B C D E F G H I J K L M N O P Q R S T U V W X Y Z

Tom Waits - Lie To Me tab

Title: Lie To me
Artist: Tom Waits
Album: Orphans
Words: Tom Waits
Music: Tom Waits
Tabber: gwendal.mollo@orange.fr
Tempo = 152


Guitare
E ||-19-16---------------------|--19-16----14----16---------|
B ||---------------------------|----------------------------|
G ||o--------------------------|----------------------------|
D ||o--------------------------|----------------------------|
A ||---------------------------|----------------------------|
E ||---------------------------|----------------------------|


--19-16---------------------|--19-16----14----16--------||----------------|
----------------------------|---------------------------||----------------|
----------------------------|--------------------------o||----------------|
----------------------------|--------------------------o||----------------|
----------------------------|---------------------------||--4--------7.---|
----------------------------|---------------------------||----------------|


-------|----------------|-------|----------------|-------|
-------|----------------|-------|----------------|-------|
-------|----------------|--8----|----------------|-------|
--6----|--6--------9.---|-------|----------------|--6----|
-------|----------------|-------|--4--------7.---|-------|
-------|----------------|-------|----------------|-------|


----------------------------|----------|
----------------------------|----------|
----------------------------|----------|
----------------------------|----------|
--6--6--6--7--7--7--6-------|----------|
----------------------------|----------|


basse 

G ||---------------------------|----------------------------||
D ||----------6----------------|-----------6----------------||
A ||---------------------------|--------------------6-------||
E ||-4-------------------------|--4-------------------------||
Tap to rate this tab
# A B C D E F G H I J K L M N O P Q R S T U V W X Y Z