Song name
# A B C D E F G H I J K L M N O P Q R S T U V W X Y Z

Tom Waits - Jockey Full Of Bourbon tab

From the "Rain Dogs" album.
Solo is in E Harmonic Minor with an added #4, aka "E Algerian".





e|---------------------------------------------------------------------------|
B|---------------------------------------------------------------------------|
G|-----0-2-/4-------4--------------4-2~---------------/5--4--2---------------|
D|-2-2--------2-2-2----2-2~---2-2-5--------5--4--2--1~----------4~-----------|
A|---------------------------------------------------------------------------|
E|---------------------------------------------------------------------------|


             ^ ^ ^ ^ ^
e|---------------------------------------------------------------------------|
B|--5-5-4----5-5-5-5-5-------------------------------------------------------|
G|--------4-----------------4----4-----4----4-4-3-4-3-4-3-4--3--2------------|
D|-----------------------2----2-----2-----2------------------------5-4~------|
A|---------------------------------------------------------------------------|
E|---------------------------------------------------------------------------|



e|---------------------------------------------------------------------------|
B|-------------------------------------------5-------------------------------|
G|-----------------4/5\4/2-----------------4---4-----------------------------|
D|---------4-4-------------5-4-2-1-2-(4)/5-------5-/7~~----------------------|
A|--2~-3/6-----2~~-----------------------------------------------------------|
E|---------------------------------------------------------------------------|
Tap to rate this tab
# A B C D E F G H I J K L M N O P Q R S T U V W X Y Z